PrimaNota.ru - самый крупный в мире бесплатный архив песенных текстов, аккордов, табулатур и нот


Mando Diao - Sweet Dreams - таба, видео

Регистрация Запомнить меня
Войти через:  Facebook Google Twitter Vk Yandex Mail.ru

Mando Diao - Sweet Dreams - таба, видео

Печатать
Просмотров: 246
Mando Diao - Sweet Dreams (Publisher)

I rewrote the existing tabs in a lighter style of play.

I hope it was helpful :- )



               |---3---|                     |---3---|          
     Q    Q    E   E   E  E  E     Q    Q    E   E   E   E  E   
E||-----------------------------|------------------------------|
B||-----------------------------|------------------------------|
G||-----------------------------|------------------------------|
D||-------7----7h--9p--7--6--4--|-------7----7h--9p--7---------|
A||--9--------------------------|--5--------------------11--9--|
E||-----------------------------|------------------------------|


            |----3---|                       |---3---|          
  Q    Q    E    E   E   E   E     Q    Q    E   E   E  E  E    
--------------------------------|-----------------------------||
--------------------------------|-----------------------------||
--------------------------------|-----------------------------||
-------9----9h--11p--9----------|-------6----6h--7p--6--------||
--7---------------------12--11--|--4--------------------9--7--||
--------------------------------|-----------------------------||
Добавлено: 21.06.2015
Другие материалы по этой песне:
  • Аккорды и текст

Страница создана 21.06.2015
http://primanota.ru/mando-diao/sweet-dreams-chords.htm
Привет, Гость.
Предлагаем пройти революционный курс по гитаре.
Подарок от PrimaNota.Ru, забирай!