PrimaNota.ru - самый крупный в мире бесплатный архив песенных текстов, аккордов, табулатур и нот


Mando Diao - High Heels - текст песни, бас-таба, видео

Регистрация Запомнить меня
Войти через:  Facebook Google Twitter Vk Yandex Mail.ru

Mando Diao - High Heels - текст песни, бас-таба, видео

Печатать
Просмотров: 193
Уроки эстрадного вокала в Санкт-Петербурге
Авторы: Gustaf Norén, Björn Dixgård

-------------------------------------------------------------------------------
			                         HIGH HEELS - Mando Diao
-------------------------------------------------------------------------------

Tabbed By : staubfinger
e-mail: saph1ra@web.de

Intro x2

G|-4-4---------2-2-|
D|-----5-5-4-4-----|
A|-----------------|
E|-----------------|

Verse

G|-----------------|    G|-------------------|
D|-----------------|    D|-------------------|
A|-----------------| or A|-7-7-10-10-9-9-8-8-|
E|-0-0-3-3-2-2-1-1-|    E|-------------------|

Prechorus (0:46)

G|--------|
D|--------|
A|-3~~/0~~|
E|--------|

Chorus

G|-------------------|    G|---------------------------|
D|-------------------| x2 D|---------------7-7-9-9-9-9-| x1
A|-7-7-10-10-9-9-8-8-|    A|-7-7-10-10-9-9------9------|
E|-------------------|    E|---------------------------|

Verse

Prechorus (1:40)

Chorus

Instrumental (same as Verse)

Verse

Prechorus (3:02)

Chorus

Outtro (same as Verse)

end on A -/10~


| /  slide up
| \  slide down
| h  hammer-on
| p  pull-off
| ~  vibrato
| +  harmonic
| x  Mute note
===============================================================================
Добавлено: 23.07.2012
Другие материалы по этой песне:

Страница создана 17.03.2012
http://primanota.ru/mando-diao/high-heels-chords.htm
Привет, Гость.
Предлагаем пройти революционный курс по гитаре.
Подарок от PrimaNota.Ru, забирай!