PrimaNota.ru - самый крупный в мире бесплатный архив песенных текстов, аккордов, табулатур и нот


Manchester Orchestra - When We Were Trees - таба, видео

Регистрация Запомнить меня
Войти через:  Facebook Google Twitter Vk Yandex Mail.ru

Manchester Orchestra - When We Were Trees - таба, видео

Печатать
Просмотров: 128
Уроки эстрадного вокала в Санкт-Петербурге
There may be some hammer ons or something left out, but I think this is a pretty 
base to work with.

Intro/Outro
e|-----------------------------------------------------|
B|-----------------------------------------------------|
G|----0---0---0---0---0------0--------------------0----|
D|--2---2---2---2---2---2-2h3-3p2---------2--2---------|
A|-3-3-3-3-1-1-1-1-0-0-0-0-------------0h1--3-3p0------|
E|--------------------------------0h1h2----------3-----|

Verse
e|-------------------------------------------------------------------|
B|----------------------------------------------------1---1---1------|
G|----0---0---0---0---0---0---0---0---0---0---0---0-----2---2---2-2--|
D|--2---2---2---2---2---2---2---2---2---2---2---2---2----------------|
A|-3-3-3-3-1-1-1-1-0-0-0-0-0-0-0-0-----------------0-0-0-0-0-0-0-0---|
E|---------------------------------1-1-1-1-3-3-3-3-------------------|

Chorus
e|--------------------------------------------------------------------|
B|----1-------1-------1---1---1-------1---1---1---1---1---1---1---1---|
G|------0-0-----0-0-----2---2---2-2-0---0---0---0---2---2---2---2-----|
D|--2-------2-------2--------------3-3-3-3-2-2-2-2-0-0-0-0-0-0-0-0----|
A|-3-3-3-3-2-2-2-2-0-0-0-0-0-0-0-0------------------------------------|
E|--------------------------------------------------------------------|

Order:
Intro/Outro
Verse x 3
Chorus x 2
Intro/Outro
Verse x 3
Chorus x 2
Intro/Outro
Добавлено: 17.04.2012
Другие материалы по этой песне:
  • Аккорды и текст

Страница создана 17.04.2012
http://primanota.ru/manchester-orchestra/when-we-were-trees-chords.htm
Привет, Гость.
Предлагаем пройти революционный курс по гитаре.
Подарок от PrimaNota.Ru, забирай!