PrimaNota.ru - самый крупный в мире бесплатный архив песенных текстов, аккордов, табулатур и нот


Manchester Orchestra - Cope - текст песни, таба, видео

Регистрация Запомнить меня
Войти через:  Facebook Google Twitter Vk Yandex Mail.ru

Manchester Orchestra - Cope - текст песни, таба, видео

Печатать
Просмотров: 68
-------------------------------------------------------------------------------
			     Cope-Manchester Orchestra
-------------------------------------------------------------------------------


Tuning: Drop C#

Intro:
        Robert McDowell
d#|---------------------------------------------------------------------------|
A#|---------------------------------------------------------------------------|
F#|--------------------12b13r12/10--------------------------------------------|
C#|0-0-03-33-3/5-55-5---x--x----x--(2x)---------------------------------------|
G#|0-0-03-33-3/5-55-5--10b11r10/8---------------------------------------------|
C#|0-0-03-33-3/5-55-5---------------------------------------------------------|

d#|---------------------------------------------------------------------------|
A#|---------------------------------------------------------------------------|
F#|--------------------12b13~~~~~--Let ring through the start of the verse----|
C#|0-0-03-33-3/5-55-5---x--x--------------------------------------------------|
G#|0-0-03-33-3/5-55-5--10b11~~~~~---------------------------------------------|
C#|0-0-03-33-3/5-55-5---------------------------------------------------------|

         Andy Hull
d#|---------------------------------------------------------------------------|
A#|---------------------------------------------------------------------------|
F#|---------------------------------------------------------------------------|
C#|0-0-03-33-3/5-55-5-17b18r17/15-(2x)----------------------------------------|
G#|0-0-03-33-3/5-55-5-17b18r17/15---------------------------------------------|
C#|0-0-03-33-3/5-55-5-17b18r17/15---------------------------------------------|

d#|---------------------------------------------------------------------------|
A#|---------------------------------------------------------------------------|
F#|---------------------------------------------------------------------------|
C#|0-0-03-33-3/5-55-5-17b18~~~~~~~~~--Let ring through the start of the verse-|
G#|0-0-03-33-3/5-55-5-17b18~~~~~~~~~------------------------------------------|
C#|0-0-03-33-3/5-55-5-17b18~~~~~~~~~------------------------------------------|

Verse:    I think it is just bass, but here is the part if you want to play along
"I wanna watch it all fall..."
d#|---------------------------------------------------------------------------|
A#|---------------------------------------------------------------------------|
F#|---------------------------------------------------------------------------|
C#|0-0-0-0-3-3-3-3-5-5-5-5-5-5-5-5----(4x)------------------------------------|
G#|0-0-0-0-3-3-3-3-5-5-5-5-5-5-5-5--------------------------------------------|
C#|0-0-0-0-3-3-3-3-5-5-5-5-5-5-5-5--------------------------------------------|
   . . . . . . . . . . . . . . . .

Verse Ending:
"It's like everything..."
d#|---------------------------------------------------------------------------|
A#|---------------------------------------------------------------------------|
F#|---------------------------------------------------------------------------|
C#|8-8-8-8-8-8-8-8-7-7-7-7-7-7-7-7--------------------------------------------|
G#|8-8-8-8-8-8-8-8-7-7-7-7-7-7-7-7--------------------------------------------|
C#|8-8-8-8-8-8-8-8-7-7-7-7-7-7-7-7--------------------------------------------|
   . . . . . . . . . . . . . . . .


Break:
      Robert McDowell
d#|---------------------------------------------------------------------------|
A#|---------------------------------------------------------------------------|
F#|--------------------12b13r12/10--------------------------------------------|
C#|0-0-03-33-3/5-55-5---x--x----x---------------------------------------------|
G#|0-0-03-33-3/5-55-5--10b11r10/8---------------------------------------------|
C#|0-0-03-33-3/5-55-5---------------------------------------------------------|

d#|---------------------------------------------------------------------------|
A#|---------------------------------------------------------------------------|
F#|--------------------12b13~~~~~--Let ring through the start of the verse----|
C#|0-0-03-33-3/5-55-5---x--x--------------------------------------------------|
G#|0-0-03-33-3/5-55-5--10b11~~~~~---------------------------------------------|
C#|0-0-03-33-3/5-55-5---------------------------------------------------------|

         Andy Hull
d#|---------------------------------------------------------------------------|
A#|---------------------------------------------------------------------------|
F#|---------------------------------------------------------------------------|
C#|0-0-03-33-3/5-55-5-17b18r17/15---------------------------------------------|
G#|0-0-03-33-3/5-55-5-17b18r17/15---------------------------------------------|
C#|0-0-03-33-3/5-55-5-17b18r17/15---------------------------------------------|

d#|---------------------------------------------------------------------------|
A#|---------------------------------------------------------------------------|
F#|---------------------------------------------------------------------------|
C#|0-0-03-33-3/5-55-5-17b18~~~~~~~~~--Let ring through the start of the verse-|
G#|0-0-03-33-3/5-55-5-17b18~~~~~~~~~------------------------------------------|
C#|0-0-03-33-3/5-55-5-17b18~~~~~~~~~------------------------------------------|

Verse 2:
"There is a cost..."
d#|---------------------------------------------------------------------------|
A#|---------------------------------------------------------------------------|
F#|---------------------------------------------------------------------------|
C#|0-0-0-0-3-3-3-3-5-5-5-5-5-5-5-5----(4x)------------------------------------|
G#|0-0-0-0-3-3-3-3-5-5-5-5-5-5-5-5--------------------------------------------|
C#|0-0-0-0-3-3-3-3-5-5-5-5-5-5-5-5--------------------------------------------|
   . . . . . . . . . . . . . . . .
  

Verse 2 Ending:
"If I do echo..."
d#|---------------------------------------------------------------------------|
A#|---------------------------------------------------------------------------|
F#|---------------------------------------------------------------------------|
C#|8-8-8-8-8-8-8-8-7-7-7-7-7-7-7-7-0-0-0-0-0-0-0-0-3-3-3-3-3-3-3-3------------|
G#|8-8-8-8-8-8-8-8-7-7-7-7-7-7-7-7-0-0-0-0-0-0-0-0-3-3-3-3-3-3-3-3------------|
C#|8-8-8-8-8-8-8-8-7-7-7-7-7-7-7-7-0-0-0-0-0-0-0-0-3-3-3-3-3-3-3-3------------|
   . . . . . . . . . . . . . . . . . . . . . . . . . . . . . . . .

d#|---------------------------------------------------------------------------|
A#|---------------------------------------------------------------------------|
F#|---------------------------------------------------------------------------|
C#|8-8-8-8-8-8-8-8-7-7-7-7-7-7-7-7--------------------------------------------|
G#|8-8-8-8-8-8-8-8-7-7-7-7-7-7-7-7--------------------------------------------|
C#|8-8-8-8-8-8-8-8-7-7-7-7-7-7-7-7--------------------------------------------|
   . . . . . . . . . . . . . . . .
Bridge:
"Now I hope..."
d#|---------------------------------------------------------------------------|
A#|---------------------------------------------------------------------------|
F#|---------------------------------------------------------------------------|
C#|8-8-8-8-8-8-8-8-7-7-7-7-7-7-7-7-0-0-0-0-0-0-0-0-3-3-3-3-3-3-3-3------------|
G#|8-8-8-8-8-8-8-8-7-7-7-7-7-7-7-7-0-0-0-0-0-0-0-0-3-3-3-3-3-3-3-3------------|
C#|8-8-8-8-8-8-8-8-7-7-7-7-7-7-7-7-0-0-0-0-0-0-0-0-3-3-3-3-3-3-3-3------------|

d#|---------------------------------------------------------------------------|
A#|---------------------------------------------------------------------------|
F#|---------------------------------------------------------------------------|
C#|8-8-8-8-8-8-8-8-7-7-7-7-7-7-7-7--------------------------------------------|
G#|8-8-8-8-8-8-8-8-7-7-7-7-7-7-7-7--------------------------------------------|
C#|8-8-8-8-8-8-8-8-7-7-7-7-7-7-7-7--------------------------------------------|


Chorus:
"I know...."

        Robert McDowell
d#|---------------------------------------------------------------------------|
A#|---------------------------------------------------------------------------|
F#|--------------------12b13r12/10--------------------------------------------|
C#|0-0-03-33-3/5-55-5---x--x----x--(2x)---------------------------------------|
G#|0-0-03-33-3/5-55-5--10b11r10/8---------------------------------------------|
C#|0-0-03-33-3/5-55-5---------------------------------------------------------|

d#|---------------------------------------------------------------------------|
A#|---------------------------------------------------------------------------|
F#|--------------------12b13~~~~~--Let ring through the start of the verse----|
C#|0-0-03-33-3/5-55-5---x--x--------------------------------------------------|
G#|0-0-03-33-3/5-55-5--10b11~~~~~---------------------------------------------|
C#|0-0-03-33-3/5-55-5---------------------------------------------------------|

         Andy Hull
d#|---------------------------------------------------------------------------|
A#|---------------------------------------------------------------------------|
F#|---------------------------------------------------------------------------|
C#|0-0-03-33-3/5-55-5-17b18r17/15-(2x)----------------------------------------|
G#|0-0-03-33-3/5-55-5-17b18r17/15---------------------------------------------|
C#|0-0-03-33-3/5-55-5-17b18r17/15---------------------------------------------|

d#|---------------------------------------------------------------------------|
A#|---------------------------------------------------------------------------|
F#|---------------------------------------------------------------------------|
C#|0-0-03-33-3/5-55-5-17b18~~~~~~~~~------------------------------------------|
G#|0-0-03-33-3/5-55-5-17b18~~~~~~~~~------------------------------------------|
C#|0-0-03-33-3/5-55-5-17b18~~~~~~~~~------------------------------------------|

I know the order and repeat numbers aren't perfect, but here is a general guide

Order:
Intro 
Verse 
Break
Verse 
Break
Bridge
Chorus


Lyrics:
I want to watch it all fall until it's dark,
you both look exactly the same at night
I'd arrange the bed like crosses, watched them fall into the floor
Made me stop and forget what we were fighting for
It's like everything that I ever have imagined's coming true today

There is a cost, my friends
Of living out some other dream to find the consequence
It comes and goes in seasons around here, I thought again
There's nothing left around to yield this sorry ignorance
If I do echo I hope you never see
There is no one there that's waiting after me
And I hope if there is one thing I let go it is the way that we cope

Now I hope if there is one thing that we know
From the way that you and I will wander on
And we won't become a lifeless lope that wanders round and hopes for sorrow

And I know!
I know!
I know! Know!
I know!
Добавлено: 19.04.2014
Другие материалы по этой песне:
  • Аккорды и текст

Страница создана 10.03.2014
http://primanota.ru/manchester-orchestra/cope-chords.htm
Привет, Гость.
Предлагаем пройти революционный курс по гитаре.
Подарок от PrimaNota.Ru, забирай!