PrimaNota.ru - самый крупный в мире бесплатный архив песенных текстов, аккордов, табулатур и нот


Manchester Orchestra - Anything Left - бас-таба, видео

Регистрация Запомнить меня
Войти через:  Facebook Google Twitter Vk Yandex Mail.ru

Manchester Orchestra - Anything Left - бас-таба, видео

Печатать
Просмотров: 90
Manchester Orchestra
Anything Left

Tuning: Standard

(0:06) Verse 1

G|----------------------------------|
D|----------------------------------|
A|-14\7-7-9-7-7-7-2/7-7-7-9-7-7-2-0-| x1
E|----------------------------------|

G|----------------------------------------------------------| |
D|----------------------------------------------------------| |
A|-2/12-12-12-12-12-12-12-12-0-0-0-0-0-12-12-12-12-12-14-12-| |
E|----------------------------------------------------------| |
                                                              |
G|-------------------------------|                            | x3
D|-------------------------------|                            |
A|-7-7-9-7-7-7-2/7-7-7-9-7-7-2-0-|                            |
E|-------------------------------|                            |

(0:53) Chorus

G|---------------------------------------------------------------------------------------------|
D|-------------------------------------4-2-----------------------------------------------------|
A|-4-4-4-2-0-0-0-0-2-----------------2-----4-2-------------------------4-4-4-2-4-2-4-4-4-2-4-2-| 
E|-------------------4-2-0-0-0-0-2-4-----------2-2-2h4/5-5-5-5-5-5-5-5-------------------------|

G|---------------------------------------------------------------- --------------------|
D|-------------------------------------4-2---------------------------------------------|
A|-4-4-4-2-0-0-0-0-2-----------------2-----4-2-------------------------4-4-4-4-4-4-444-| 
E|-------------------4-2-0-0-0-0-2-4-----------2-2-2h4/5-5-5-5-5-5-5-5-----------------|

(1:20) Verse 2

G|----------------------------------------------------------| |
D|----------------------------------------------------------| |
A|-2/12-12-12-12-12-12-12-12-0-0-0-0-0-12-12-12-12-12-14-12-| |
E|----------------------------------------------------------| |
                                                              |
G|-------------------------------|                            | x3
D|-------------------------------|                            |
A|-7-7-9-7-7-7-2/7-7-7-9-7-7-2-0-|                            |
E|-------------------------------|                            |

(1:58) Chorus 2

G|---------------------------------------------------------------------------------------------|
D|-------------------------------------4-2-----------------------------------------------------|
A|-4-4-4-2-0-0-0-0-2-----------------2-----4-2-------------------------4-4-4-2-4-2-4-4-4-2-4-2-| 
E|-------------------4-2-0-0-0-0-2-4-----------2-2-2h4/5-5-5-5-5-5-5-5-------------------------|

G|-------------------------------------------------------------------------------------|
D|-------------------------------------4-2---------------------------------------------|
A|-4-4-4-2-0-0-0-0-2-----------------2-----4-2-------------------------5-5-5-5-5-5-5-5-| 
E|-------------------4-2-0-0-0-0-2-4-----------2-2-2h4/5-5-5-5-5-5-5-5-----------------|

G|---------------------------------------------------|
D|---------------------------------------------------|
A|-4-4-4-4-4-4-4-4-3-3-3-3-3-3-3-3-2-2-2-2-0~---0/12~|
E|---------------------------------------------------|

(2:38) Chorus/outro

G|---------------------------------------------------------------------------------------------|
D|-------------------------------------4-2-----------------------------------------------------|
A|-4-4-4-2-0-0-0-0-2-----------------2-----4-2-------------------------4-4-4-2-4-2-4-4-4-2-4-2-| 
E|-------------------4-2-0-0-0-0-2-4-----------2-2-2h4/5-5-5-5-5-5-5-5-------------------------|

G|--------------------------------------------------------------------------------------|
D|-------------------------------------4-2----------------------------------------------|
A|-4-4-4-2-0-0-0-0-2-----------------2-----4-2-------------------------7777777777777777-| 
E|-------------------4-2-0-0-0-0-2-4-----------2-2-2h4/5-5-5-5-5-5-5-5------------------|

G|-------------------------------------|
D|-------------------------------------|
A|-4444444444444424-5555555-2222222-0~-|
E|-------------------------------------|
Добавлено: 25.04.2012
Другие материалы по этой песне:
  • Аккорды и текст

Страница создана 25.04.2012
http://primanota.ru/manchester-orchestra/anything-left-chords.htm
Привет, Гость.
Предлагаем пройти революционный курс по гитаре.
Подарок от PrimaNota.Ru, забирай!