PrimaNota.ru - самый крупный в мире бесплатный архив песенных текстов, аккордов, табулатур и нот


Mancha de Rolando - Perder Conexión - таба, видео

Регистрация Запомнить меня
Войти через:  Facebook Google Twitter Vk Yandex Mail.ru

Mancha de Rolando - Perder Conexión - таба, видео

Печатать
Просмотров: 85
Intro / casi toda la cancion: [(E D A) X 3] C# D
(el E se toca 3 veces)

1° Riff que acompaña a los acordes de 'Intro / casi toda la cancion':

 E  E  E   D    A             C#    D
|------------------|      |-------------|       
|------------------|      |-------------|
|------------------|      |-------------|
|------------------| X 3  |-------------|
|----------5h4-5h4-|      |---4-----5---|
|------------------|      |-------------|


'..Te inventaste unas alas blancas y empezaste a perder conexión,
ya no alcanza para salvarte apagar ese televisor..'

INTRO junto al 1° RIFF

'..Después vino más complicado porque un ave se te apareció,
se comió todo aquel pasado, te invitó a morderla pero no..'

INTRO junto al 1° RIFF

'..Te invito a morderla pero NO!!!!!..'

2° Riff:

|-----------------------------|      |----------------|
|-----------------------------|      |----------------|
|-----------------------------|      |----------------|
|--------------5-2-------7-5--| X 4  |----------------|
|--7-7-4-5-4-5-----7-7-5------|      |----------------|
|-----------------------------|      |--1-1-1-1-9-10--|

y vuelve a los acordes de la intro

'..Creo que ya estás cocinado, esa hembra te domesticó.
De tu historia quedó un puñado de dibujos viejos sin color..'

'..de dibujos viejos, sin color!!!!!..'

2° RIFF

3° Riff:

|-------------------------------------------------------|
|-------------------------------------------------------|
|-------------------------------------------------------|
|-------------------------------------------------------| X 2
|---7-------7-------7-------7-7-------------------------|
|-----3-4-5---3-4-5---3-4-5-----5-4-3----1-1-1-1-9-10---|


1° SOLO


Base de cuando habla Jorge Falcone:

G5 A5 B5 G5 - G5 A5 B5


2° Solo:

|--------------------8-7-0---|
|----------------------------|
|---9-7-5-4-0-2--9-7---------|
|----------------------------| X 4
|----------------------------|
|----------------------------|


4° Riff (despues del 2° SOLO, mientras J. Falcone dice: 'van a querer, primero, tu guitarra...'):

|-----------------------------|
|--------------3--------3-5---|
|---2-5-4--2-5----2-5-4-------|
|-----------------------------| X 4
|-----------------------------|
|-----------------------------|
Добавлено: 26.03.2016
Другие материалы по этой песне:
  • Аккорды и текст

Страница создана 26.03.2016
http://primanota.ru/mancha-de-rolando/perder-conexion-chords.htm
Привет, Гость.
Предлагаем пройти революционный курс по гитаре.
Подарок от PrimaNota.Ru, забирай!