PrimaNota.ru - самый крупный в мире бесплатный архив песенных текстов, аккордов, табулатур и нот


Mancha de Rolando - Los Años Que Viví - таба, видео

Регистрация Запомнить меня
Войти через:  Facebook Google Twitter Vk Yandex Mail.ru

Mancha de Rolando - Los Años Que Viví - таба, видео

Печатать
Просмотров: 71
Intro:
                                                G5              A5
|------------------------------------|      |----------------------------|
|------------------------------------|      |----------------------------|
|------------------------------------|      |----------------------------|
|----------5--5----------------------| X 3  |----------5--5--------------|
|--7-7-5h7------5h7-5h7-5h7-5h7-7-7--|      |--7-7-5h7------7-7-5h7--7/--|
|------------------------------------|      |----------------------------|


Toda la Canción:

base: [G5 A5]

|-----------------|
|-----------------|
|-----------------|
|-----------------| Muchas veces
|-----------------|
|--3-4-5---3-2-5--|


Traiganme los años que vivi que quiero ver si estoy pisando firme.
Me paré en la mesa y quise ir a donde acababa de aburrirme.

Yo te espero en el lugar de los diablos y los locos tristes,
con la cara me vas a hablar: a este mundo lo cambian los pibes.


INTRO


Llora el sabio y su soledad se despierta con la luz divina,
los primeros en comulgar lo crucifican desde la oficina.


    D5               F5         D5            F5              D5
Pero los hermanos son inmortales, los ancianos fueron quemados,
D5                   F5*            F5
  los que limpian la vena de la verdad no tienen miedo.
Los golpeados con palos del amo, cansados que nunca se cansan, 
fusilados, sordos y ciegos van curando el miedo.

* (el F5 marcado se toca en la quinta cuerda) (el otro se toca como un F5 normal)


Intermedio: 

|-------------------------------------|      |-------------------------------------|
|-------------------------------------|      |-------------------------------------|
|----------5--5-----------------------|      |-------------------------------------|
|--7-7-5h7------5h7-5h7-5h7-5h7-7-7---| X 2  |----------5--5-----------------------| X 2
|-------------------------------------|      |--7-7-5h7------5h7-5h7-5h7-5h7-7-7---|
|-------------------------------------|      |-------------------------------------|

|-------------------------------------|      
|-------------------------------------|      
|----------5--5-----------------------|      
|--7-7-5h7------5h7-5h7-5h7-5h7-7-7---| X 2  
|-------------------------------------|      
|-------------------------------------|    


Los hermanos son inmortales, los ancianos fueron quemados,
los que limpian la vena de la verdad no tienen miedo.
Los golpeados con palos del amo, cansados que nunca se cansan, 
fusilados, sordos y ciegos van curando el miedo. 

Riff:

|------------------------------------------------|      
|------------------------------------------------|
|--5h6-7/--5h6-7-7-7--5h6-7/--5h6-7-7-7--5h6-7/--|      
|------------------------------------------------|
|------------------------------------------------|      
|------------------------------------------------|


Los que limpian la vena de la verdad no tienen miedo.


RIFF


Fusilados, sordos y ciegos van curando el miedo. 


RIFF


Los que limpian la vena de la verdad no tienen miedo.


Final:

|----------|  
|----------|
|--5h6-7/--|      
|----------|
|----------|
|----------|
Добавлено: 14.05.2016
Другие материалы по этой песне:
  • Аккорды и текст

Страница создана 13.05.2016
http://primanota.ru/mancha-de-rolando/los-anos-que-vivi-chords.htm
Привет, Гость.
Предлагаем пройти революционный курс по гитаре.
Подарок от PrimaNota.Ru, забирай!