PrimaNota.ru - самый крупный в мире бесплатный архив песенных текстов, аккордов, табулатур и нот


Manafest - Bring The Ruckus - текст песни, таба, видео

Регистрация Запомнить меня
Войти через:  Facebook Google Twitter Vk Yandex Mail.ru

Manafest - Bring The Ruckus - текст песни, таба, видео

Печатать
Просмотров: 257
Manafest - Bring the Ruckus

Tuning: Drop D and every string half a step down
normal distortion / no reverb/effects

Intro/Verse
Eb---------------------------------------------------------------------------|
Bb---------------------------------------------------------------------------|
Gb---------------------------------------------------------------------------|
Db---------------------------------------------------------------------------|
Ab---------------3/5--0----------------------------3/7-----------3-3-3-------|
Db---0--3--5--0-------0-0-3--5/6\5--3--0--3--5--0-------0-0-3-5--------------|


Eb---------------------------------------------------------------------------|
Bb---------------------------------------------------------------------------|
Gb---------------------------------------------------------------------------|
Db---------------------------------------------------------------------------|
Ab---------------3/5--0----------------------------3/7--8--7--0-----7--------|
Db---0--3--5--0-------0-0-3--5/6\5--3--0--3--5--0----------------8-----0-----|



Chorus (strumming)
Eb--(5)------------------------------(5)-------------------------------------|
Bb---8---7---11---6---13---xxx--------8---7---11---6-------------------------|
Gb---7---7---10---5---12---xxx--------7---7---10---5-------------------------|
Db--(0)------8----3---10---xxx-------(0)------8----3-5-3---1-----------------|
Ab-----------8----3---10---xxx----------------8----3-5-3---1-----------------|
Db-----------8----3---10---xxx----------------8----3-5-3---1-----------------|



Bridge
Eb----------------------------------------|---------------------------------------------------|
Bb----------------------------------------|---------------------------------------------------|
Gb----------------------------------------|---------------------------------------------------|
Db----------------------------------------|---------------------------------------------------|
Ab-----------(0)-7--8--x----------7--8--8-|----------(0)-7--8--(0)---------(0)--10--12--7h8p7-|
Db---0--7--8--0--------x--10--12--------8-|--0--7--8--0--------(0)--10--12-(0)----------------|
irregular timing
a bit more fluently when drums start (play the eliminated notes i.e.(0) )




| /  slide up
| \  slide down
| h  hammer-on
| p  pull-off
| ~  vibrato
| +  harmonic
| x  Mute note
Добавлено: 21.06.2013
Другие материалы по этой песне:
  • Аккорды и текст

Страница создана 21.06.2013
http://primanota.ru/manafest/bring-the-ruckus-chords.htm
Привет, Гость.
Предлагаем пройти революционный курс по гитаре.
Подарок от PrimaNota.Ru, забирай!