PrimaNota.ru - самый крупный в мире бесплатный архив песенных текстов, аккордов, табулатур и нот


Mana - Vivir-sin-aire - таба, видео

Регистрация Запомнить меня
Войти через:  Facebook Google Twitter Vk Yandex Mail.ru

Mana - Vivir-sin-aire - таба, видео

Печатать
Просмотров: 88
MI interpretacion/ my interpretation
Soy gabriel tengo 16 a=F1os y me gusta tocar mucho la guitarra..
cualquier muchacha que me quiera escribir esta bienvenida   gracias!!
esta es una muy buena cancion..... esta version esta basada en el unplugged=
que hizo mana
hace unos a=F1os. estuve viendo el video y lo saque ..
va algo como asi ...
My name is gabriel I am 16 I love to play guitar.... any girls out there can=
 give me a call
My e-mail is down there lol  THANKS!!!
This tab is based on the unplugged version, I saw the video so I  figured it=
 out... kinda



Intro:

     G         Bm7       C        D                Final/end
E----3------3---2---5-2--0----3-0--2-----3---        |--3-2-2-0-0---------|
B----3-3----3---2--3-----1---1-----3-3p5--5--        |--3-3-3-1-1--3-3\1~-|
G----0--0-0-----3-2------0--0------2---------        |-------------4-4\2~-|
D--------------------------------------------        |--------------------|
A------------------------3---------0---------        |--------------------|
E----3---3------2----------------------------        |--------------------|
(se repite y despues final.......)



      
G           Bm7       C       D                  G Bm7 C D
 Como.....

riff2
e--3/5--5-5--3-2--2-3-2-0-------2---3--2-2-3--------
B--3/5--5-5--3-3--3-3-3-1--1/3--3---3--3-3-3--------
G--------------------------2/4----------------------
D---------------------------------------------------
A---------------------------------------------------
E---------------------------------------------------

G           Bm7       C       D                  G Bm7 C D
 Como ...........calmar

riff3
e-----3------3-5-3-----------------------
B-3/5----3/5-3-5-3--3-3/5--5-5-5-3-3-3-1-
G--------4/5--------4-4/5--5-5-5-3-4-4-2-
D----------------------------------------
A----------------------------------------
E----------------------------------------

G           Bm7       C       D                        G Bm7 C D
Me encantaria      , (riff2)

G          Bm7        C      D               G Bm7 C D
Como quisiera     , (riff 3)


C            D     Em             C
  Pero no

 G              D
  Me estoy

riff 4
e--2-3-5-3-2---3--------------
B------------5---5-3----------
G-------------------5-4-2-----
D-------------------------5p4-
A-----------------------------
E-----------------------------


Em                      C           G  D
 Como ,
Em                      C           D
 Como  calmar ,
Em                      C           G  D
Como ,
Em             C                    D
Me encantaria....

-------INTRO-----------

Como pudiera ......

riff 4
e-----------2-3-0----------------
B------3-5--3-3-1--5-5-5-3-3-----
G--4-5-4-5---------5-5-5-4-4--4-5
D--5-5------------------------5-5
A--------------------------------
E--------------------------------

Como......... un ave

riff 5
e--------7---5---3--2-3-0-----2-3-2-2-3
B----5p7---5---3----3-3-1-1p3-3-3-3-3-3
G-------------------------2p4----------
D--------------------------------------
A--------------------------------------
E--------------------------------------


Como pudiera la flor .....

riff 6
e-----------2-3-0-------------2-3
B------3-5--3-3-1--5-5-5-3-3--3-3
G--4-5-4-5---------5-5-5-4-4-----
D--5-5---------------------------
A--------------------------------
E--------------------------------

Como ............. vivir sin ti (riff 5)

riff 5
e--------7---5---3--2-3-2-0-0---------------
B----5p7---5---3----3-3-3-1-1-3-3-0-0-1\3--
G-----------------------------4-4-0-0-2\4--
D------------------------------------------
A------------------------------------------
E------------------------------------------

Pero no ...... (riff 4)

Same thign after this as in the beggining and then the end
lo mismo en esta parte y despues el final

final:           
e--3-2-0----------2-3----0-----------------------7--10--9--8-7----------|
B--3-3-1---3-3---3--3---1--5-3--1---------------8----12-10-10-8---------|
G---------4--4--2---2--2------4--2------------7------------------7------|
D--------5---5--------------------------0-7-9----------------------10-9-|
A-----------------------------------10~---------------------------------|
E-----------------------------------------------------------------------|

no estoy seguro de que este muy bien pero que se le va a hacer.....
aconsejo que se toque utilizando los dedos , como guitarra clasica  asi es "=
mas facil" pero
toma un poco de practica.... la tablatura esta como confusa asi qeu toca ver=
la de a poco
escucharla cancion varias veces es lo mejor ...

OK I am not toos sure if this is right or wrong... I recomend finger 
picking for this song.
listen to it  alot of time it'll get stuck in ur head I promise..
OK  any questions comments welcome   gabrielcxc@aol.com
bueno dudas comentarios?????  gabrielcxc@aol.com



Gabriel Bautista..........guitarist gabe    4 eva
08/28/01
Que viva Colombia!!! lol lol 
     
Добавлено: 08.07.2013
Другие материалы по этой песне:
  • Аккорды и текст

Страница создана 08.07.2013
http://primanota.ru/mana/vivir-sin-aire-2-chords.htm
Привет, Гость.
Предлагаем пройти революционный курс по гитаре.
Подарок от PrimaNota.Ru, забирай!