PrimaNota.ru - самый крупный в мире бесплатный архив песенных текстов, аккордов, табулатур и нот


Mana - Te Solte La Rienda - текст песни, таба, видео

Регистрация Запомнить меня
Войти через:  Facebook Google Twitter Vk Yandex Mail.ru

Mana - Te Solte La Rienda - текст песни, таба, видео

Печатать
Просмотров: 162
Авторы: José Alfredo Jiménez
Авторы текста: José Alfredo Jiménez
Suena Mejor con dos Guitarras

Intro:
       A
e|-------------------------------|
B|-10-12-13-14-13-12-----10~-----|
G|-------------------------------|
D|-11-12-13-14-13-12-9/11--------|
A|-------------------------------|
E|-------------------------------|


A
Se acabo la fuerza de mi mano izquierda (riff 1)
 				   E
voy a dejarte el mundo, para ti solita (riff 2)

como al caballo blanco, le solte la rienda (riff 3)
				        A
a ti tambien te suelto, y te me vas ahorita (riff 4)

      riff 1	     	riff 2		   riff 3		     riff 4			 riff 5
e|-------------|-----------------------|---------------|------------------------|--10-9--10-11-12-|
B|-10-9-12-10--|-12-10-12\14-14-13-12--|-12-10-10---9~-|-10-9-12-10-10-12-14-15-|--10-10-10-11-12-|
G|-------------|-----------------------|---------------|------------------------|-----------------|
D|-11-9-12-11--|-12-11-12\14-14-13-12--|-12-11-11-9----|-11-9-12-11-11-12-14-16-|-----------------|
A|-------------|-----------------------|---------------|------------------------|-----------------|
E|-------------|-----------------------|---------------|------------------------|-----------------|

CORO:
D
Y cuando al fin comprendas que el amor bonito
                  			    E
lo tenías conmigo(riff 5), vas a extrañar mis besos

en los propios brazos del que esté contigo
                     D                 E
Vas a sentir que lloras sin poder siquiera
               A  F#m			 Bm
derramar tu llanto y has de querer mirarte
             E                       A  F#m
en mis ojos tristes que quisiste tanto
               Bm       E         A
que quisiste tanto que quisiste tanto

Solo:

e|---------------------------0---------0---0-------0-|
B|-5-5-5-5-5-3-3-2-2-3-2-0-----------0---------------|
G|-6-6-6-6-6-4-4-2-2-4-2-1-----2---1---------2---1---|
D|-------------------------4-----2-------4-----2-----|
  *=================================================*
e|-------4-----------------------------2-------------|
B|-7-7-7-5-7-5-7-7--3-3-3-2-3-5-3-2---2--------------|
G|-7-7-7---7-6-7-7--4-4-4-2-4-6-4-2--2----(armónico)-|
D|--------------------------------------------12-----|
A|---------------------------------------------------|

A
Cuando se quiere a fuerza rebazar la meta,(riff 6)
				       E
y se abandona todo, lo que sea querido,(riff 7)

como tu traes el alma, con la rienda suelta,(riff 8)
						  A
a ti tambien te suelto, y te me vas ahorita.(riff 9)

     riff 6         riff 7                      riff 8                riff 9
e|----------------|-----------------------|-----------------|---------------------------|
B|----------------|-----------------------|-----------------|-10-10-9-12-10-10-12-14-15-|
G|-11--9-11-11--9-|--9-11-12-13-12-11---9~|--9-9--7-7---9~--|---------------------------|
D|-12-11-12-12-11-|-11-12-13-14-13-12-11--|-11-11-9-9-11----|-11-11-9-12-11-11-12-14-16-|
A|----------------|-----------------------|-----------------|---------------------------|
E|----------------|-----------------------|-----------------|---------------------------|

Final:

Se me acabo la fuerza...E
y te solte la rienda... A

e|-------------|
B|-10-12-13-14-|
G|-------------|
D|-11-12-13-14-|
A|-------------|
E|-------------|.
Добавлено: 03.03.2012
Другие материалы по этой песне:

Страница создана 03.03.2012
http://primanota.ru/mana/te-solte-la-rienda-chords.htm
Привет, Гость.
Предлагаем пройти революционный курс по гитаре.
Подарок от PrimaNota.Ru, забирай!