PrimaNota.ru - самый крупный в мире бесплатный архив песенных текстов, аккордов, табулатур и нот


Mana - Ojala Y Pudiera Borrarte - таба, видео

Регистрация Запомнить меня
Войти через:  Facebook Google Twitter Vk Yandex Mail.ru

Mana - Ojala Y Pudiera Borrarte - таба, видео

Печатать
Просмотров: 114
Ojala pudiera borrarte
Por: MANA, AMAR ES COMBATIR
        G       G      G7M           [x5]
E-||----3-------3-------2-----------|
B-||----3-------3-------3-----------|
G-||----0-------0-------0-----------|
D-||--------------------------------|
A-||--------------------------------|
E-||--------------------------------|
G      G     G7M            C
          Ojalá y te me borraras de mis sueños
D                  G     G     G7M
   Y poder desdibujarte
G      G     G7M              C
          Ojalá y pudiera ahogarte en un charco
  D                G     G     G7M
Lleno de rosas y amor
G      G     G7M             C
          Ojalá y se me olvidara hasta tu nombre
D                       G     G     G7M
   Ahogarlo dentro del mar
G      G     G7M             C
          Ojalá y que tu sonrisa de verano
 D                G     G     G7M
Se pudiera ya borrar
  Em    D   C
Vuelve corazón
         G                Bm
Uh uh uh uh, vuelve a mi lado
  Em    D   C
Vuelve corazón
     Em                   Bm
No vuelve, no vuelve, no vuelve, no

C                    G                     Bm
Ojalá y te me borraras para siempre de mi vida
                    Em
Para no volverte a ver
C                      G                          Bm
   Y ojalá y te me borraras por las noches en el día
                    Em
Para no volverte a ver
C                       G                         Bm
   Y ojalá y te me esfumaras de mis sueños, vida mía
                    C
Para no volverte a ver

D          G
No, ni en sueños

[solo]
    G              C            D          G
E-||---------------------------------|---------------------------------|
B-||----------------3-3-3/5-------|------------------------------------|
G-||---------4-5-------------------|----2-4-5--5-----4-2-4-------------|
D-||-4/5-----------------------5/4|----------------------------0-------|
A-||---------------------------------|---------------------------------|
E-||---------------------------------|---------------------------------|
    G               C        D                  G
E-||------------------------------|--------5--5-----------------|
B-||------------------8----------|----------------8-7-8---------|
G-||--2/4---4--4--7-7---4-5-|---5/7-----------------------------|
D-||-------5--5-----------------|-------------------------------|
A-||------------------------------|-----------------------------|
E-||------------------------------|-----------------------------|

E-||-10---------------------|
B-||--------8---------------|
G-||----------------5-------|
D-||------------------------|
A-||------------------------|
E-||------------------------|
   Como puedo yo borrar tus besos vida

   G      G     G7M          C
   Están tatuados en mi piel
      D                     G                             G
  Quiero de una vez por todas, ya largarte
            G7M
Y borrarte de mi ser
G      G     G7M          C
   Ojalá y la lluvia me ahogue entre sus brazos
D                     G     G     G7M
   Para no pensar en ti
G      G     G7M    C
   O que pase un milagro o pase algo,
  D                 G     G     G7M
Que me lleve hasta ti
  Em    D   C
Vuelve corazón
         G                Bm
Uh uh uh uh, vuelve a mi lado
      Em              D         C
Pero no, no, no, no Vuelve corazón
     Em                   Bm
No vuelve, no vuelve, no vuelve, no
C                    G                        Bm
   Ojalá y te me borraras para siempre de mi vida
                    Em
Para no volverte a ver
C                      G                          Bm
   Y ojalá y te me borraras por las noches en el día
                    Em
Para no volverte a ver
C                       G                         Bm
   Y ojalá y te me esfumaras de mis sueños, vida mía
                     Em
Y que no me lluevas más
C                     G                          Bm
   Y ojalá y que la lluvia me ahogue entre sus brazos
                    C
Para no volverte a ver
 D          Em
No, ni en sueños
C                      D
  Pa' que pares de llover

  G    Am       C   D
Sueños,
  G    Am       C   D
sueños,
  G    Am       C   D
oh oh sueños
Добавлено: 15.07.2012
Другие материалы по этой песне:

Страница создана 16.06.2012
http://primanota.ru/mana/ojala-y-pudiera-borrarte-chords.htm
Привет, Гость.
Предлагаем пройти революционный курс по гитаре.
Подарок от PrimaNota.Ru, забирай!