PrimaNota.ru - самый крупный в мире бесплатный архив песенных текстов, аккордов, табулатур и нот


Mana - Lluvia Al Corazon - аккорды и текст, таба, видео

Регистрация Запомнить меня
Войти через:  Facebook Google Twitter Vk Yandex Mail.ru

Mana - Lluvia Al Corazon - аккорды и текст, таба, видео

Печатать
Просмотров: 146
Lluvia Al Corazon
Mana
This is the way I play the intro.. 
Works For me!  

         F#m          -       D

e|----------------------|-----------------------|
B|----------------------|-----------------------|
G|-6--6--6--6--6--6--6--|--6--6--6--6--6--6--6--|
D|-4--4--4--4--4--4--4--|--4--4--4--4--4--4--4--|
A|-0--0--0--0--0--0--0--|--5--5--5--5--5--5--5--|
E|----------------------|-----------------------|

         E       -         C#m
e|----------------------|----------------------|
B|----------------------|----------------------|
G|-2--2--2--2--2--2--2--|----------------------|
D|-2--2--2--2--2--2--2--|-6--6--6--6--6--6--6--|
A|-0--0--0--0--0--0--0--|-4--4--4--4--4--4--4--|
E|----------------------|----------------------|


F#m                  D
Por que lloras mi amor
                     E
Que te fluye en la piel
                      C#m
Te despiertas en el llanto
                    F#m
Con espantos de dolor

F#m                     D
Son los monstruos del ayer
                     E
Son tus miedos corazon
                      C#m
Sabes bien que yo te amo
                  F#m
Y te pido tengas fe

F#m           D            E
No sufras mas, no mi bebe
             C#m
Eres la mariposa
                        F#m
Que vuela hacia el huracan
                  D
Cuéntame de tu pesar
                  E          C#m
Suelta todo tu dolor, dimelo

     F#m     D
Aaaaaaaaa amor
        E             C#m
Un huracan y una mariposa
         F#m
Llegan se dan la cara
     D          E
En medio de la mar


A              F#m
Lluvia de esperanza
 D             E
Lluvia al corazón
A
Siempre ahi estare
     F#m
No te fallare
          D                  E
Desde el cielo lluvia al corazon
            A             F#m
Sol que lanza la esperanza
        D            E
La esperanza y la luz
                   A
No importa lo que pase
             F#m          D
No importa jamas, no, no
 E              A
Lluvia al corazon


F#m - D - E - C#m


F#m              D
Fluye la desilusion
                E
Muda desesperacion
                 C#m
Pero todo tiene alivio
                 F#m
Menos el decir adios

F#m         D              E
Y si te vas, asi, yo morire
                   C#m
Y te amarras a tu piano
                 F#m
Y te vas al altamar
                  D
Y te quieres escapar
                E
Y te quieres diluir
          C#m
No mi amor


     F#m     D
Aaaaaaaaa amor
        E             C#m
Un huracan y una mariposa
         F#m
Llegan se dan la cara
     D          E
En medio de la mar



A              F#m
Lluvia de esperanza
 D             E
Lluvia al corazon
A
Siempre ahi estara
     F#m
No te fallare
          D                  E
Desde el cielo lluvia al corazon
            A             F#m
Sol que lanza la esperanza
        D            E
La esperanza y la luz
                   A
No importa lo que pase
             F#m          D
No importa jamas, no, no
 E              A
Lluvia al corazon

A - F#m - D - E X4

e|---------------------------------------------|
B|---------------------------------------------|
G|---------------------------------------------|  X 2
D|--------------0------------------------------|
A|-0--2-4-----0---4-4-2------0--2-4------5-----|
E|--------2-------------------------2--------0-|

[[Optional for 7 string Guitarists  B|---3-----| ]]


A                 F#m
oooohooohooohooohhhh
        D             E
La esperanza al corazon
A                 F#m
oooohooohooohooohhhh
        D             E
La esperanza al corazón
A                 F#m
oooohooohooohooohhhh
        D                       E
Que te sane que te alivie el dolor
                   A
No importa lo que pase
             F#m         D
No importa jamas, no, no
 E              A
Lluvia al corazon




Добавлено: 19.07.2012
Другие материалы по этой песне:

Страница создана 03.03.2012
http://primanota.ru/mana/lluvia-al-corazon-chords.htm
Привет, Гость.
Предлагаем пройти революционный курс по гитаре.
Подарок от PrimaNota.Ru, забирай!