PrimaNota.ru - самый крупный в мире бесплатный архив песенных текстов, аккордов, табулатур и нот


Man - Te Solte La Rienda - текст песни, таба, видео

Регистрация Запомнить меня
Войти через:  Facebook Google Twitter Vk Yandex Mail.ru

Man - Te Solte La Rienda - текст песни, таба, видео

Печатать
Просмотров: 96
HOLA A TODOS MI NOMBRE ES JUAN CARLOS Y ESTE ES MI PRIMER TRABAJO,ESPERO QUE LES GUSTE Y 
DISFRUTEN,ES UNA CANCION BIEN CHIDA.

AHI LES VA!!!:

INTRO:A

Este es el riff con el cual comienza.Sergio lo hace asi:

E------------------------|I
B-10-12-13-14-13-12--10--|I
G-11-12-13-14-13-12-11---|I
D------------------------|I
A------------------------|I
E------------------------|I

Se me acabó la fuerza de mi mana izquierda

E-------------|I
B-10-9-12-10--|I
G-11-9-12-11--|I
D-------------|I
A-------------|I
E-------------|I
                               E
Voy a dejarte el mundo para ti solita

E--------------------|I
B-12-10-14-14-13-12--|I
G-12-11-14-14-13-12--|I
D--------------------|I
A--------------------|I
E--------------------|I

Como al caballo blanco le solte la rienda

E-------------|I
B-12-10-10-9--|I
G-12-11-11-9--|I
D-------------|I
A-------------|I
E-------------|I
                                  A
A ti tambien te suelto y te me vas ahorita.

E----------------------------|I
B-10-9-12-10-10-12-13----14--|I
G-11-9-12-11-11-12-13-14-----|I
D----------------------------|I
A----------------------------|I
E----------------------------|I

Coro:
D
Y cuando al fin comprendas que el amor bonito lo tenias conmigo,
    E
vas a extrañar mis besos en los propios brazos del que este contigo
D                               E                 A            F#
vas a sentir que lloras,sin poder siquiera derramar tu llanto,
               Bm             E                        A                    E
y has de querer mirate en mis ojos tristes que quisistes tanto,que quisistes
            A
tanto,que quisistes tanto.

Solo 100% exacto!.

E--------------------------------------------------|I
B-5-5-5-5--5-3-3-2--2-3-2-----0--------0-0-----0---|I
G-6-6-6-6--6-4-4-2--2-4-2--2-2-2-1--1-2-2-2-1-2-1--|I
D--------------------------------------------------|I
A--------------------------------------------------|I
E--------------------------------------------------|I

E-2-2-2-2--2-------------------------|I
B-3-3-3-3--3-3-3-3--3-3-3-2-3-5-3-2--|I
G------------4-4-4--4-4-4-2-4-6-4-2--|I
D------------------------------------|I
A------------------------------------|I
E------------------------------------|I

Aqui se hace el acorde la en forma descendente desde la 3ra Cuerda o sea G(sol).Al final 
termina el solo con un medio punteo en el doceavo trate de la cuerda A,solo se pone el 
sin pulsarla fuerte y el sonido tendrá que parecerse al de la 3ra cuerda en el 2do trate Asi:

    A
E---0-------|I
B--2--------|I
G-2---------|I
D-----------|I
A-------12--|I
E-----------|I

A
Cuando se quiera fuerza rebasar la meta

E----------|I
B-7-5-7-7--|I
G----------|I
D-7-6-7-7--|I
A----------|I
E----------|I

y se abandona todo lo que se ha obtenido

E-------------------|I
B-5-7-8-8/9-8-7--5--|I
G-6-7-8-8/9-8-7-6---|I
D-------------------|I
A-------------------|I
E-------------------|I

Como tu traes el alma con la rienda suelta

E--------------|I
B-5-3-3-3/5-5--|I
G-6-4-4-4/6-6--|I
D--------------|I
A--------------|I
E--------------|I

A ti tambien te suelto y te me vas ahorita

E-----------------------------|I
B-10-9-12--10--10-12-13---14--|I
G-11-9-12--11--11-12-13-14----|I
D-----------------------------|I
A-----------------------------|I
E-----------------------------|I

se repite el coro de nuevo y al final:

Se me acabo la fuerza

E------0--|I
B-----2---|I
G----2----|I
D---2-----|I
A--0------|I
E-0-------|I

y te solte     La rienda.

Sigue en A y al final el ultimo riff

E--------------|I
B-10-12-13-14--|I
G-11-12-13-14--|I
D--------------|I
A--------------|I
E--------------|I

eso es todo,pero todavia me hacen falta los arreglos del coro.

Espero que lo disfruten y cualquier sugerencia o duda de esta tablatuta escribanme a
jucamalo2004@yahoo.es.
Добавлено: 09.06.2013
Другие материалы по этой песне:
  • Аккорды и текст

Страница создана 09.06.2013
http://primanota.ru/man/te-solte-la-rienda-chords.htm
Привет, Гость.
Предлагаем пройти революционный курс по гитаре.
Подарок от PrimaNota.Ru, забирай!