PrimaNota.ru - самый крупный в мире бесплатный архив песенных текстов, аккордов, табулатур и нот


Man - El Reloj Cucu - таба, видео

Регистрация Запомнить меня
Войти через:  Facebook Google Twitter Vk Yandex Mail.ru

Man - El Reloj Cucu - таба, видео

Печатать
Просмотров: 86
Hola Soi Alan de nuevo y la siguiente Kancion Me Pone triste asi q sin
comentarios aki esta !!!! (alan_metallica_666@hotmail.com)




   Gtr.1 toca acordes
   Gtr.2 toca requintos (tab)

 Acordes:
 E      001220 or 7fret 799977
 A      022200 or 5fret 556775
 C#m    456644
 B7     242422
 G#m    444664

Intro: C#m   E(7fret)   C#m   A(5fret)   B7   C#m
             E(7fret)   C#m   A(5fret)   B7   C#m

 E
 El relojito cucu sonaba  
e|---4--4--4---4---4--4--2/4----4~------------------|                                      
B|---5--5--5---5---5--5--4/5----5~------------------|
G|--------------------------------------------------|
D|--------------------------------------------------|
A|--------------------------------------------------|
E|--------------------------------------------------|
                            A
 papa beso mi frente      
e|---5--5--5---7--7--7----5/7-----5~----------------|
B|---7--7--7---9--9--9----7/9-----7~----------------|
G|--------------------------------------------------|
D|--------------------------------------------------|
A|--------------------------------------------------|
E|--------------------------------------------------|
                              B7
 me dijo, buenas noches hijito   
e|---7---------------9----------------7~-------|
B|-----9----9/11----11-----------9~------------|
G|-------9------------------11  ---------------|
D|---------------------------------------------|
A|---------------------------------------------|
E|---------------------------------------------|
                         E         (Riff.1)
 y me apago la luz         
e|----4----------------------------------------|
B|-------5-----5---4---------------------------|
G|----------6----------6------6---4------------|
D|--------------------------6------------------|
A|---------------------------------------------|
E|---------------------------------------------|

 Coro:
 C#m                          A
 Oye cucu, papa se fue
                 B7                   G#m
 prende la luz que tengo miedo   
e|---2---4---2------------------------------|
B|------------------5---4---5~--------------|
G|------------------------------------------|
D|------------------------------------------|
A|------------------------------------------|
E|------------------------------------------|
 C#m                         A 
 Oye cucu, papa se fue
                  B7                   G#m
 prende la luz y apaga el miedo   
e|---2/4----4---4--------2-----4~-----------|
B|---4/5----5-------5----4-----5~-----------|
G|------------------------------------------|   
D|------------------------------------------|
A|------------------------------------------|
E|------------------------------------------|
 (Fig.1) 
 Gtr.1:      C#m  E   C#M       A  B7 C#m E   C#m        A  B7 C#m  

 Gtr.2:   
e|---4----7\----4---4--4--5---2----4-----7\----4---4--4--5---2---4---|
B|---5----9\----5---5--5--5---4----5-----9\----5---5--5--5---4---5---|
G|-------------------------------------------------------------------|
D|-------------------------------------------------------------------|
A|-------------------------------------------------------------------|
E|-------------------------------------------------------------------|

 B7                           E
 Esta cancion de amor        
e|---7--7--7\----5--5--5\----4--4~----------|
B|---9--9--9\----7--7--7\----5--5~----------|
G|------------------------------------------|
D|------------------------------------------|
A|------------------------------------------|
E|------------------------------------------|
                        A
 va para mi papa                 
e|---5--5--5---7--7--7---5/7----5~----------|
B|---7--7--7---9--9--9---7/9----7~----------|
G|------------------------------------------|
D|------------------------------------------|
A|------------------------------------------|
E|------------------------------------------|
                         B7        (Riff.2)
 se escapo al viento           
e|---9---9---9----11--11--11---12----11~----|
B|--10-10-10---12--12--12---14----12~-------|
G|------------------------------------------|
D|------------------------------------------|
A|------------------------------------------|
E|------------------------------------------|
                  C#m            (Riff.3)
 nos dejo solitos          
e|---------------4-------------------------------|
B|-----------5-----7--5h7p5----4h5p4---4--5--7---|
G|-------6---------------------------------------|
D|---6-------------------------------------------|
A|-----------------------------------------------|
E|-----------------------------------------------|
 B7                            E
 Esta cancion de amor       
e|---4--4--4----4--4---5---------4~--------------|
B|---5--5--5----5--5---7------5------------------|
G|-----------------------------------------------|
D|-----------------------------------------------|
A|-----------------------------------------------|
E|-----------------------------------------------|
                         A
 va para mi mama               
e|----------7----------------9----------------9~-|
B|---7/9----------9/10------10---------10~-------|
G|--------------9----------------------11--------|
D|-----------------------------------------------|
A|-----------------------------------------------|
E|-----------------------------------------------|
                           B7
 que aguanto todito            
e|---12-12-12---11-11-11---12---11~--------------|
B|---14-14-14---12-12-12---14---12~--------------|
G|-----------------------------------------------| 
D|-----------------------------------------------|
A|-----------------------------------------------|
E|-----------------------------------------------|
                            C#m
 le dolio hasta el hueso      
e|---4-4-4---5--4--------------------------7-7-7-|
B|----------------------7--5------4--5--7--------|
G|------------------------------6----------------|
D|-----------------------------------------------|
A|-----------------------------------------------|
E|-----------------------------------------------|
 B7                           E    (Riff.4)  
 Es por eso que mama       
e|---4--4-4-4---4--5------5-----------5~---------|
B|---5--5-5-5---5--7--7------7-------7~----------|
G|-----------------------------------------------|
D|-----------------------------------------------|
A|-----------------------------------------------|
E|-----------------------------------------------|
                          A          (Riff.5) 
 lloraba en silencio             
e|---5--5-5-5--5-5-7------7----------5~----------|
B|---7--7-7-7--7-7-9--9------9------7~-----------|
G|-----------------------------------------------|
D|-----------------------------------------------|
A|-----------------------------------------------|
E|-----------------------------------------------|
                             B7
 lloraba en las noches
                                             C#m 
 y como aguanto por las mananas        w/Riff.1

 Coro:

 Se repite el Fig.1

 E
 Esta cancion de amor      w/Riff.4
                              A
 va pa' mis hermanos        w/Riff.5
                        C#m
 lo extranamos anos          w/Riff.3


 B7                     E 
 Este grito de amor             w/Riff.4
                        A
 se lo doy al cielo                w/Riff.5
                        B7
 le pregunto tanto, tanto tanto    *rasguea B7

 no contesta nada              w/Riff.1
 
 Coro

 C#m                         A
 Oye cucu papa se fue
                  B7                  G#m
 prende la luz, como lo extrano   
e|---2---4--4/5---4---2---4------------------|
B|---4---5--5/7---5---4---5------------------|
G|-------------------------------------------|
D|-------------------------------------------|
A|-------------------------------------------|
E|-------------------------------------------|
 C#m                         A
 Oye cucu papa se fue
                   B7 
 prende la luz  




Добавлено: 13.10.2013
Другие материалы по этой песне:
  • Аккорды и текст

Страница создана 13.10.2013
http://primanota.ru/man/el-reloj-cucu-chords.htm
Привет, Гость.
Предлагаем пройти революционный курс по гитаре.
Подарок от PrimaNota.Ru, забирай!