PrimaNota.ru - самый крупный в мире бесплатный архив песенных текстов, аккордов, табулатур и нот


Man With A Mission - Out Of Control - таба, видео

Регистрация Запомнить меня
Войти через:  Facebook Google Twitter Vk Yandex Mail.ru

Man With A Mission - Out Of Control - таба, видео

Печатать
Просмотров: 169
Man with a mission x zebrhaead - out of control

tunning drop d

may need some fixing
any correction please drop in the comments 
i take as much as i can get!

verse var1
e|------------------------|
b|------------------------|
g|------------------------|
d|---7--------------------|
a|--5--7-8p7p5-3----------|
d|-0------------3-3/5-3-2-|

verse var2 (very unsure about this!!!)
e|---------------------|
b|---------------------|
g|---------------------|
d|-030-030-030-3/6-535-|
a|-030-030-030-3/6-535-|
d|-030-030-030-3/6-535-|

verse var1

pre-chorus
e|-0---------------|
b|-3---------------|
g|-2---------------|
d|-0---3---5-5-7-7-|
a|-----3---5-5-7-7-|
d|-----3---5-5-7-7-|

chorus
e|---------------------|   |-------------------|
b|---------------------|   |-------------------|
g|-----------5555------|   |-33333333-55555555-|
d|-0000-3333-5555-5555-|   |-33333333-55555555-|
a|-0000-3333-3333-5555-|x3 |-11111111-33333333-|
d|-0000-3333------5555-|   |-------------------|

verse var1 x3 then scratch with your pick to the rhythm

verse var2

verse var1

pre-chorus

chorus

solo - play chorus as rhythn

they are meant to be tremlo notes (lazy), just listen to the rhythm
e|-----------------------------|
b|-/15-/17-/18-/20-/17-/18-/15-|
g|-----------------------------|
d|-----------------------------|
a|-----------------------------|
d|-----------------------------|

after do some medio-core dan p. shredding (pentatonic on 12th fret???)
i'm not even going to attempt trying to figure that out, 
i just rather improvise that bit

e|-/18-17--15-13-12-13--10w\-|
b|---------------------------|
g|---------------------------|
d|---------------------------|
a|---------------------------|
d|---------------------------|
     w=whammy pedal

verse var1 play palm muted

chorus x2 second time repeat the end chorus bit twice in a row

verse var2
 
end on
d|0-|
a|0-|
d|0-|
Добавлено: 05.11.2015
Другие материалы по этой песне:
  • Аккорды и текст

Страница создана 05.11.2015
http://primanota.ru/man-with-a-mission/out-of-control-chords.htm
Привет, Гость.
Предлагаем пройти революционный курс по гитаре.
Подарок от PrimaNota.Ru, забирай!