PrimaNota.ru - самый крупный в мире бесплатный архив песенных текстов, аккордов, табулатур и нот


Man With A Mission - Get Off Of My Way - таба, бас-таба, видео

Регистрация Запомнить меня
Войти через:  Facebook Google Twitter Vk Yandex Mail.ru

Man With A Mission - Get Off Of My Way - таба, бас-таба, видео

Печатать
Просмотров: 374
-------------------------------------------------------------------------------
                             Get Off of My Way - MAN WITH A MISSION
-------------------------------------------------------------------------------
Tabbed by: Ralph G

Tuning: Standard

e|---------------------------------------------------------------------------|
B|---------------------------------------------------------------------------|
G|----------------------------2----------------------------------------------|
D|-4-2-------2----4-4-2---2-4------4-2---------------------------------------|
A|-----4-2-4------------4--------------4-2-0-2-222-0-2-3-2-0-----------------| 
E|2-------------2----------------2-------------------------------------------| x3

e|---------------------------------------------------------------------------|
B|---------------------------------------------------------------------------|
G|----------------------------2----------------------------------------------|
D|-4-2-------2----4-4-2---2-4------4-2---------------------------------------|
A|-----4-2-4------------4--------------4-2-0-2-------------------------------| 
E|2-------------2----------------2-------------------------------------------| 
Добавлено: 05.11.2015
Другие материалы по этой песне:
  • Аккорды и текст

Страница создана 10.06.2014
http://primanota.ru/man-with-a-mission/get-off-of-my-way-chords.htm
Привет, Гость.
Предлагаем пройти революционный курс по гитаре.
Подарок от PrimaNota.Ru, забирай!