PrimaNota.ru - самый крупный в мире бесплатный архив песенных текстов, аккордов, табулатур и нот


Man The Reformer - Nails Like Johnny Winter - таба, видео

Регистрация Запомнить меня
Войти через:  Facebook Google Twitter Vk Yandex Mail.ru

Man The Reformer - Nails Like Johnny Winter - таба, видео

Печатать
Просмотров: 100
Tabbed by: Joshua Garcia (joshuag523@aol.com)

Tabs for the song: Nails Like Johnny Winter by Man, The Reformer
Please rate and let me know if you have any corrections. Thank you.


http://manthereformer.bandcamp.com/releases


Tuning: Standard (E A D G B E)


Guitar 1 = Left Speaker
Guitar 2 = Right Speaker


Intro
Guitar 1:
E||------------------------------------------------------------|
B||--9~------9----5---6~--6-6--6-6-6--5/6--6--5----8----8-8----|
G||--x-------x----x---x---x-x--x-x-x--x/x--x--x----------------|
D||--10~-----10---5---6~--6-6--6-6-6--5/6--6--5--8---8------8--| x4
A||--8~------8----3---4~--4-4--4-4-4--3/4--4--3--7---7------7--|
E||------------------------------------------------------------|


Guitar 2:
E||------------------------------------------------------------|
B||------------------------------------------------------------|
G||--12h13p12\10-10h12p10\8-8h10p8\6\5~-----5h6p5---5----------|
D||-----------------------------------------------6---8~---6\--|
A||------------------------------------------------------------|
E||------------------------------------------------------------|


E||----------------------------------------|
B||----------------------------------------|
G||--------8------------8----------8-------|
D||-----6------------6----------6----------| x2
A||--8----------8------------8----------7--|
E||----------------------------------------|


Guitar 1/2:
E||------------------------------------------|
B||--6--6--6--6--6--6--6--6--5--5--5--5------|
G||--x--x--x--x--x--x--x--x--x--x--x--x------|
D||--6--6--6--6--6--6--6--6--5--5--5--5------|
A||--4--4--4--4--4--4--4--4--3--3--3--3------|
E||--------------------------------------0~--|



Verse
Guitar 1:
E||------------------------------|
B||------------------------------|
G||------------------------------|
D||----------6-----6-----6-------| x4
A||----------8-----8-----8--7-7--|
E||--0h1-------------------------|


Guitar 2:
E||------------------------------|
B||------------------------------|
G||------------------------------|
D||-------6-----6-----6-----5-5--| x4
A||-------8-----8-----8-----7-7--|
E||--0h1-------------------------|



Chorus
Guitar 1:
E||------------------13--------------13--------------12--------------12--|
B||--------------13--------------13--------------13--------------13------|
G||----------13--------------13--------------12--------------12----------|
D||------15--------------15--------------14--------------14--------------| x2
A||----------------------------------------------------------------------|
E||--(0)-----------------------------------------------------------------|


E||------------------13--------------13--131313131313-------------------------------------------|
B||--------------13--------------13-------------------161616161616-14141414141414-131313131313--|
G||----------13--------------13-----------------------------------------------------------------|
D||------15--------------15---------------------------------------------------------------------|
A||---------------------------------------------------------------------------------------------|
E||--(0)----------------------------------------------------------------------------------------|



E||------------------13--------------13--13--12--------------------|
B||--------------13--------------13--------------14--13------------|
G||----------13--------------13--------------------------13----12--|
D||------15--------------15----------------------------------------|
A||----------------------------------------------------------------|
E||--(0)-----------------------------------------------------------|


Guitar 2:
E||---------------------------------------------------|
B||---------------------------------------------------|
G||---------------------------------------------------|
D||--3----3-3--3-3----3-3--3-5----5-5--5-5----5-5--5--| x2
A||--3----3-3--3-3----3-3--3-3----3-3--3-3----3-3--3--|
E||--1----1-1--1-1----1-1--1-3----3-3--3-3----3-3--3--|


E||---------------------------------------------------|
B||---------------------------------------------------|
G||---------------------------------------------------|
D||--6----6-6--6-6----6-6--6-6----6-6--6-6----6-6--6--|
A||--4----4-4--4-4----4-4--4-6----6-6--6-6----6-6--6--|
E||--4----4-4--4-4----4-4--4-4----4-4--4-4----4-4--4--|


E||---------------------------------------------------|
B||---------------------------------------------------|
G||---------------------------------------------------|
D||--6----6-6--6-6----6-6--6-5--5-5--5-5--5-5--5------|
A||--4----4-4--4-4----4-4--4-3--3-3--3-3--3-3--3------|
E||--4----4-4--4-4----4-4--4-3--3-3--3-3--3-3--3--0~--|



Verse
Guitar 1:
E||------------------------------|
B||------------------------------|
G||------------------------------|
D||----------6-----6-----6-------| x4
A||----------8-----8-----8--7-7--|
E||--0h1-------------------------|


Guitar 2:
E||------------------------------|
B||------------------------------|
G||------------------------------|
D||-------6-----6-----6-----5-5--| x2
A||-------8-----8-----8-----7-7--|
E||--0h1-------------------------|


E||------------------------------|------------------------------|
B||------------------------------|------------------------------|
G||------------------------------|------------------------------|
D||------------6-6----6-----5-5--|-------6-----6-----6-----5-5--|
A||------------8-8----8-----7-7--|-------8-----8-----8-----7-7--|
E||--0h1-------------------------|--0h1-------------------------|



Guitar 1/2:
E||--------------------------------------------------------------------|
B||--------------------------------------------------------------------|
G||--------------------------------------------------------------------|
D||---------6\------6\------6\------6\------5\------5\------5\-----5\--| x2
A||---------8\------8\------8\------8\------7\------7\------7\-----7\--|
E||--(h)1/------1/------1/------1/------1/------1/------1/------1------|



Chorus
Guitar 1:
E||------------------13--------------13--------------12--------------12--|
B||--------------13--------------13--------------13--------------13------|
G||----------13--------------13--------------12--------------12----------|
D||------15--------------15--------------14--------------14--------------| x2
A||----------------------------------------------------------------------|
E||--(0)-----------------------------------------------------------------|


E||------------------13--------------13--131313131313-------------------------------------------|
B||--------------13--------------13-------------------161616161616-14141414141614-131313131313--|
G||----------13--------------13-----------------------------------------------------------------|
D||------15--------------15---------------------------------------------------------------------|
A||---------------------------------------------------------------------------------------------|
E||--(0)----------------------------------------------------------------------------------------|



E||------------------13--------------13--13--12---------------------|
B||--------------13--------------13--------------14--13-------------|
G||----------13--------------13--------------------------13---------|
D||------15--------------15------------------------------------15\--|
A||-----------------------------------------------------------------|
E||--(0)------------------------------------------------------------|


Guitar 2:
E||---------------------------------------------------|
B||---------------------------------------------------|
G||---------------------------------------------------|
D||--3----3-3--3-3----3-3--3-5----5-5--5-5----5-5--5--| x2
A||--3----3-3--3-3----3-3--3-3----3-3--3-3----3-3--3--|
E||--1----1-1--1-1----1-1--1-3----3-3--3-3----3-3--3--|


E||---------------------------------------------------|
B||---------------------------------------------------|
G||---------------------------------------------------|
D||--6----6-6--6-6----6-6--6-6----6-6--6-6----6-6--6--|
A||--4----4-4--4-4----4-4--4-6----6-6--6-6----6-6--6--|
E||--4----4-4--4-4----4-4--4-4----4-4--4-4----4-4--4--|


E||---------------------------------------------------|
B||---------------------------------------------------|
G||---------------------------------------------------|
D||--6----6-6--6-6----6-6--6-5--5-5--5-5--5-5--5-5\---|
A||--4----4-4--4-4----4-4--4-3--3-3--3-3--3-3--3-3\---|
E||--4----4-4--4-4----4-4--4-3--3-3--3-3--3-3--3-3\---|



Bridge
Guitar 1/2:
E||-------------------------------------------------------------------------|
B||-------------------------------------------------------------------------|
G||-------------------------------------------------------------------------|
D||--6---6---6---6---6---6---8---8---8---8---8---8---6---6---6---6---6---6--|
A||--4---4---4---4---4---4---6---6---6---6---6---6---6---6---6---6---6---6--|
E||--4---4---4---4---4---4---6---6---6---6---6---6---4---4---4---4---4---4--|


Guitar 1:
E||---------------------------|
B||---------------------------|
G||--5-5-5-5-----5-5-5-5------|
D||--5-5-5-5-----5-5-5-5------| (Repeat All x2)
A||--3-3-3-3-----3-3-3-3------|
E||----------0-0---------0-0--|
             . .         . .

Guitar 2:
E||---------------------------|
B||---------------------------|
G||---------------------------|
D||---------------------------| (Repeat All x2)
A||--------6-----------6------|
E||--8-6-8---8-6-8-6-8---8-6--|



Guitar 1/2:
E||-------------------------------------------------------------------------|
B||-------------------------------------------------------------------------|
G||-------------------------------------------------------------------------|
D||--6---6---6---6---6---6---8---8---8---8---8---8---6---6---6---6---6---6--|
A||--4---4---4---4---4---4---6---6---6---6---6---6---6---6---6---6---6---6--|
E||--4---4---4---4---4---4---6---6---6---6---6---6---4---4---4---4---4---4--|


Guitar 1:
E||---------------------------------------------------|
B||---------------------------------------------------|
G||--5-5-5-5-----5-5-5-5-----5-5-5-5-----5-5-5-5------|
D||--5-5-5-5-----5-5-5-5-----5-5-5-5-----5-5-5-5------|
A||--3-3-3-3-----3-3-3-3-----3-3-3-3-----3-3-3-3------|
E||----------0-0---------0-0---------0-0---------0-0--|
             . .         . .         . .         . .


E||---------------------------------------------------------------------|
B||---------------------------------------------------------------------|
G||--12-12-12-12-12-12-12-12-12-12-12-12-17-17-17-17-17-17-17-17-17-----|
D||--x--x--x--x--x--x--x--x--x--x--x--x--x--x--x--x--x--x--x--x--x------|
A||--10-10-10-10-10-10-10-10-10-10-10-10-15-15-15-15-15-15-15-15-15-----|
E||-----------------------------------------------------------------0~--|



Guitar 2:
E||---------------------------|
B||---------------------------|
G||---------------------------|
D||---------------------------| x2
A||--------6-----------6------|
E||--8-6-8---8-6-8-6-8---8-6--|


E||--------------------------|---------------------------|
B||--------------------------|---------------------------|
G||--------------------------|---------------------------|
D||--------------------------|--10-7----7----------------|
A||--------6-----------6-----|-------10---10-7-9-6-------|
E||--8-6-8---8-6-8-6-8---8/--|---------------------9-0~--|



Breakdown / Outro
Guitar 1/2:
E||-----------------------------------------------------------------|
B||-----------------------------------------------------------------|
G||-----------------------------------------------------------------|
D||------6\------6\------6\------6\------5\------5\------5\-----5\--| x3
A||------8\------8\------8\------8\------7\------7\------7\-----7\--|
E||--1/------1/------1/------1/------1/------1/------1/------1------|


E||------------------------------------------------------------------|
B||------------------------------------------------------------------|
G||------------------------------------------------------------------|
D||------6\------6\------6\------6\------5\------5\------5\-----5-5--|
A||------8\------8\------8\------8\------7\------7\------7\-----7-7--|
E||--1/------1/------1/------1/------1/------1/------1/------1-------|




Tablature Legend
----------------
 h   hammer-on
 p   pull-off
 b   bend
 pb  pre-bend
 r   release bend
 ~   hold / vibrato
 .   palm mute
 /   slide up
 \   slide down
 *   pinch harmonic
 '   natural harmonic
 x   mute note
 T   tap
Добавлено: 30.10.2015
Другие материалы по этой песне:
  • Аккорды и текст

Страница создана 30.10.2015
http://primanota.ru/man-reformer/nails-like-johnny-winter-chords.htm
Привет, Гость.
Предлагаем пройти революционный курс по гитаре.
Подарок от PrimaNota.Ru, забирай!