PrimaNota.ru - самый крупный в мире бесплатный архив песенных текстов, аккордов, табулатур и нот


Man Overboard - Shes Got Her Own Man Now - текст песни, таба, видео

Регистрация Запомнить меня
Войти через:  Facebook Google Twitter Vk Yandex Mail.ru

Man Overboard - Shes Got Her Own Man Now - текст песни, таба, видео

Печатать
Просмотров: 176
------------------------------------------------------------------------------
		SHE'S GOT HER OWN MAN NOW - MAN OVERBOARD
------------------------------------------------------------------------------

Tabbed by : Boris Paskhaver (bigbadb)
Email     : bp771@nyu.edu


Tuning: Eb (Half Step Down)

VERSE ONE (0:01):
[ NOTE: Bass joins in on on 3rd ] 

   (x4)
eb|---------------------------------------------------------------------------|
Bb|---------------------------------------------------------------------------|
Gb|---------------------------------------------------------------------------|
Db|--3-3-3-3-3-3-3-3--7-7-7-7-7-7-7-7--5-5-5-5-5-5-5-5-5-5-5-5-5-5-5-5--------|
Ab|--3-3-3-3-3-3-3-3--7-7-7-7-7-7-7-7--5-5-5-5-5-5-5-5-5-5-5-5-5-5-5-5--------|
Eb|--1-1-1-1-1-1-1-1--5-5-5-5-5-5-5-5--3-3-3-3-3-3-3-3-3-3-3-3-3-3-3-3--------|
    P.M---------------------------------------------------------------|
  1     At my best    I've been weird   It's no more autumn stuff
  2     Look at         free from       Shoot bullets through
  3     Call me out    She's calling    And I guess she didn't
  4     Call me out    She's calling    And I guess she didn't

CHORUS ONE (0:31):

   (x1)
eb|---------------------------------------------------------------------------|
Bb|---------------------------------------------------------------------------|
Gb|-------------------5-5-5-5-5-5-5-5-----------------------------------------|
Db|--3-3-3-3-3-3-3-3--5-5-5-5-5-5-5-5--5-5-5-5-5-5-5-5-5-5-5-5-5-5-5-5--------|
Ab|--3-3-3-3-3-3-3-3--3-3-3-3-3-3-3-3--5-5-5-5-5-5-5-5-5-5-5-5-5-5-5-5--------|
Eb|--1-1-1-1-1-1-1-1-------------------3-3-3-3-3-3-3-3-3-3-3-3-3-3-3-3--------|
     P.M--------------------------------------------------------------|
         She's got her  own man now            She's doing fine

   (x1)
eb|---------------------------------------------------------------------------|
Bb|---------------------------------------------------------------------------|
Gb|---------------------------------------------------------------------------|
Db|--3-3-3-3-3-3-3-3--7-7-7-7-7-7-7-7--5-5-5-5-5-5-5-5-5-5-5-5-5-5-5-5--------|
Ab|--3-3-3-3-3-3-3-3--7-7-7-7-7-7-7-7--5-5-5-5-5-5-5-5-5-5-5-5-5-5-5-5--------|
Eb|--1-1-1-1-1-1-1-1--5-5-5-5-5-5-5-5--3-3-3-3-3-3-3-3-3-3-3-3-3-3-3-3--------|
     P.M --------------------------------------------------------------|
         She's got her own man now           I guess that's why she

   (x1)
eb|---------------------------------------------------------------------------|
Bb|---------------------------------------------------------------------------|
Gb|---------------------------------------------------------------------------|
Db|--3-3-3-3-3-3-3-3--7-7-7-7-7-7-7-7--5-5-5-5-5-5-5-5-5-5-5-5-5-5-5-5--------|
Ab|--3-3-3-3-3-3-3-3--7-7-7-7-7-7-7-7--5-5-5-5-5-5-5-5-5-5-5-5-5-5-5-5--------|
Eb|--1-1-1-1-1-1-1-1--5-5-5-5-5-5-5-5--3-3-3-3-3-3-3-3-3-3-3-3-3-3-3-3--------|
     P.M --------------------------------------------------------------|
         Call me out    What she's       And I guess she didn't know

   (x1)
eb|---------------------------------------------------------------------------|
Bb|---------------------------------------------------------------------------|
Gb|-------------------5-5-5-5-5-5-5-5-----------------------------------------|
Db|--3-3-3-3-3-3-3-3--5-5-5-5-5-5-5-5--5-5-5-5-5-5-5-5-5-5-5-5-5-5-5-5--------|
Ab|--3-3-3-3-3-3-3-3--3-3-3-3-3-3-3-3--5-5-5-5-5-5-5-5-5-5-5-5-5-5-5-5--------|
Eb|--1-1-1-1-1-1-1-1-------------------3-3-3-3-3-3-3-3-3-3-3-3-3-3-3-3--------|
     P.M --------------------------------------------------------------|
         She's got      own man now
 
VERSE TWO (1:01):

   (x3)
eb|---------------------------------------------------------------------------|
Bb|---------------------------------------------------------------------------|
Gb|---------------------------------------------------------------------------|
Db|--3-3-3-3-3-3-3-3--7-7-7-7-7-7-7-7--5-5-5-5-5-5-5-5-5-5-5-5-5-5-5-5--------|
Ab|--3-3-3-3-3-3-3-3--7-7-7-7-7-7-7-7--5-5-5-5-5-5-5-5-5-5-5-5-5-5-5-5--------|
Eb|--1-1-1-1-1-1-1-1--5-5-5-5-5-5-5-5--3-3-3-3-3-3-3-3-3-3-3-3-3-3-3-3--------|
    P.M --------------------------------------------------------------|
  1     At my best    average or less   I can't apply myself
  2   She wins the    before long       I guess she dug to deep
  3     Call me out   She's calling    And I guess she didn't
   
   (x1)
eb|---------------------------------------------------------------------------|
Bb|---------------------------------------------------------------------------|
Gb|---------------------------------------------------------------------------|
Db|--3-3-3-3-3-3-3-3--7-7-7-7-7-7-7-7---5-------------------------------------|
Ab|--3-3-3-3-3-3-3-3--7-7-7-7-7-7-7-7---5-- LET RING -------------------------|
Eb|--1-1-1-1-1-1-1-1--5-5-5-5-5-5-5-5---3-------------------------------------|
     P.M -----------------------------|
         Call me out    She's calling       I guess that's why she
      
CHORUS TWO (1:30):

   (x1)
eb|---------------------------------------------------------------------------|
Bb|---------------------------------------------------------------------------|
Gb|-------------------5-5-5-5-5-5-5-5-----------------------------------------|
Db|--3-3-3-3-3-3-3-3--5-5-5-5-5-5-5-5--5-5-5-5-5-5-5-5-5-5-5-5-5-5-5-5--------|
Ab|--3-3-3-3-3-3-3-3--3-3-3-3-3-3-3-3--5-5-5-5-5-5-5-5-5-5-5-5-5-5-5-5--------|
Eb|--1-1-1-1-1-1-1-1-------------------3-3-3-3-3-3-3-3-3-3-3-3-3-3-3-3--------|
          She's got her  own man now              She's doing fine

   (x1)
eb|---------------------------------------------------------------------------|
Bb|---------------------------------------------------------------------------|
Gb|---------------------------------------------------------------------------|
Db|--3-3-3-3-3-3-3-3--7-7-7-7-7-7-7-7--5-5-5-5-5-5-5-5-5-5-5-5-5-5-5-5--------|
Ab|--3-3-3-3-3-3-3-3--7-7-7-7-7-7-7-7--5-5-5-5-5-5-5-5-5-5-5-5-5-5-5-5--------|
Eb|--1-1-1-1-1-1-1-1--5-5-5-5-5-5-5-5--3-3-3-3-3-3-3-3-3-3-3-3-3-3-3-3--------|
          She's got her  own man now      I guess that's why she

   (x1)
eb|---------------------------------------------------------------------------|
Bb|---------------------------------------------------------------------------|
Gb|---------------------------------------------------------------------------|
Db|--3-3-3-3-3-3-3-3--7-7-7-7-7-7-7-7--5-5-5-5-5-5-5-5-5-5-5-5-5-5-5-5--------|
Ab|--3-3-3-3-3-3-3-3--7-7-7-7-7-7-7-7--5-5-5-5-5-5-5-5-5-5-5-5-5-5-5-5--------|
Eb|--1-1-1-1-1-1-1-1--5-5-5-5-5-5-5-5--3-3-3-3-3-3-3-3-3-3-3-3-3-3-3-3--------|
         Call me out    What she's       And I guess she didn't

   (x1)
eb|---------------------------------------------------------------------------|
Bb|---------------------------------------------------------------------------|
Gb|-------------------5-5-5-5-5-5-5-5-----------------------------------------|
Db|--3-3-3-3-3-3-3-3--3-3-3-3-3-3-3-3--5-5-5-5-5-5-5-5-5-5-5-5-5-5-5-5--------|
Ab|--3-3-3-3-3-3-3-3--3-3-3-3-3-3-3-3--5-5-5-5-5-5-5-5-5-5-5-5-5-5-5-5--------|
Eb|--1-1-1-1-1-1-1-1-------------------3-3-3-3-3-3-3-3-3-3-3-3-3-3-3-3--------|
         She's got      own man now
   
   (x1)
eb|----------------|
Bb|----------------|
Gb|----------------|
Db|--7-------------|
Ab|--7-  LET RING  |
Eb|--5-------------|

BRIDGE (2:04)

   (x3)
eb|---------------------------------------------------------------------------|
Bb|---------------------------------------------------------------------------|
Gb|-------------------7-7-7-7-7-7-7-7----------------------------5------------|
Db|--3-3-3-3-3-3-3-3--7-7-7-7-7-7-7-7--7-7-7-7-7-7-7-7-7-7-7-7---5---- QUICK -|
Ab|--3-3-3-3-3-3-3-3--5-5-5-5-5-5-5-5--7-7-7-7-7-7-7-7-7-7-7-7-3-3-3-x--------|
Eb|--1-1-1-1-1-1-1-1-------------------5-5-5-5-5-5-5-5-5-5-5-5----------------|
  1     You made        The guest of    Party got stopped      just went
  2     You made        The guest of    Party got stopped      just went
  3     You made        The guest of    Party got stopped      stopped

   (x1)
eb|---------------------------------------------------------------------------|
Bb|---------------------------------------------------------------------------|
Gb|-------------------7-7-7-7-7-7-7-7-----------------------------------------|
Db|--3-3-3-3-3-3-3-3--7-7-7-7-7-7-7-7--3-------------5------------------------|
Ab|--3-3-3-3-3-3-3-3--5-5-5-5-5-5-5-5--3   LET RING  5  LET RING  ------------|
Eb|--1-1-1-1-1-1-1-1-------------------1-------------3------------------------|
        You made        The guest of     Party got      Everybody

FINAL CHORUS (2:35)
 
   (x1)
eb|---------------------------------------------------------------------------|
Bb|---------------------------------------------------------------------------|
Gb|-------------------5-5-5-5-5-5-5-5-----------------------------------------|
Db|--3-3-3-3-3-3-3-3--5-5-5-5-5-5-5-5--5-5-5-5-5-5-5-5-5-5-5-5-5-5-5-5--------|
Ab|--3-3-3-3-3-3-3-3--3-3-3-3-3-3-3-3--5-5-5-5-5-5-5-5-5-5-5-5-5-5-5-5--------|
Eb|--1-1-1-1-1-1-1-1-------------------3-3-3-3-3-3-3-3-3-3-3-3-3-3-3-3--------|
            She's got      own man now            She's doing fine

   (x1)
eb|---------------------------------------------------------------------------|
Bb|---------------------------------------------------------------------------|
Gb|---------------------------------------------------------------------------|
Db|--3-3-3-3-3-3-3-3--7-7-7-7-7-7-7-7--5-5-5-5-5-5-5-5-5-5-5-5-5-5-5-5--------|
Ab|--3-3-3-3-3-3-3-3--7-7-7-7-7-7-7-7--5-5-5-5-5-5-5-5-5-5-5-5-5-5-5-5--------|
Eb|--1-1-1-1-1-1-1-1--5-5-5-5-5-5-5-5--3-3-3-3-3-3-3-3-3-3-3-3-3-3-3-3--------|
         She's got      own man now         I guess it's cause she

   (x1)
eb|---------------------------------------------------------------------------|
Bb|---------------------------------------------------------------------------|
Gb|---------------------------------------------------------------------------|
Db|--3-3-3-3-3-3-3-3--7-7-7-7-7-7-7-7--5-5-5-5-5-5-5-5-5-5-5-5-5-5-5-5--------|
Ab|--3-3-3-3-3-3-3-3--7-7-7-7-7-7-7-7--5-5-5-5-5-5-5-5-5-5-5-5-5-5-5-5--------|
Eb|--1-1-1-1-1-1-1-1--5-5-5-5-5-5-5-5--3-3-3-3-3-3-3-3-3-3-3-3-3-3-3-3--------|
         Call me out    What she's       And I guess she didn't

   (x1)
eb|---------------------------------------------------------------------------|
Bb|---------------------------------------------------------------------------|
Gb|-------------------5-5-5-5-5-5-5-5-----------------------------------------|
Db|--3-3-3-3-3-3-3-3--5-5-5-5-5-5-5-5--5-5-5-5-5-5-5-5-5-5-5-5-5-5-5-5--------|
Ab|--3-3-3-3-3-3-3-3--3-3-3-3-3-3-3-3--5-5-5-5-5-5-5-5-5-5-5-5-5-5-5-5--------|
Eb|--1-1-1-1-1-1-1-1-------------------3-3-3-3-3-3-3-3-3-3-3-3-3-3-3-3--------|
         She's got her  own man now

OUTRO (3:05):

   (x2)
eb|---------------------------------------------------------------------------|
Bb|---------------------------------------------------------------------------|
Gb|---------------------------------------------------------------------------|
Db|--3-3-3-3-3-3-3-3--7-7-7-7-7-7-7-7--5-5-5-5-5-5-5-5-5-5-5-5-5-5-5-5--------|
Ab|--3-3-3-3-3-3-3-3--7-7-7-7-7-7-7-7--5-5-5-5-5-5-5-5-5-5-5-5-5-5-5-5--------|
Eb|--1-1-1-1-1-1-1-1--5-5-5-5-5-5-5-5--3-3-3-3-3-3-3-3-3-3-3-3-3-3-3-3--------|
     P.M--------------------------------------------------------------|     
  1    Call me out                        And I guess she didn't know
  2    Call me out                        And I guess she didn't know better

   
Добавлено: 02.06.2013
Другие материалы по этой песне:

Страница создана 02.06.2013
http://primanota.ru/man-overboard/shes-got-her-own-man-now-chords.htm
Привет, Гость.
Предлагаем пройти революционный курс по гитаре.
Подарок от PrimaNota.Ru, забирай!