PrimaNota.ru - самый крупный в мире бесплатный архив песенных текстов, аккордов, табулатур и нот


Man Overboard - Fm Dial Style - текст песни, таба, видео

Регистрация Запомнить меня
Войти через:  Facebook Google Twitter Vk Yandex Mail.ru

Man Overboard - Fm Dial Style - текст песни, таба, видео

Печатать
Просмотров: 176
------------------------------------------------------------------------------
			FM DIAL STYLE - MAN OVERBOARD
------------------------------------------------------------------------------

Tabbed by : Boris Paskhaver (bigbadb)
Email     : bp771@nyu.edu


Tuning: Eb (Half Step Down)

VERSE ONE (0:00)

   (x3)
eb|--------------------------------------------------------------------------|
Bb|--------------------------------------------------------------------------|
Gb|--7-7-7-7-7-7-7-7---------------------------------------------------------|
Db|--7-7-7-7-7-7-7-7---7-7-7-7-7-7-7-7---9-9-9-9-9-9-9-9---5-5-5-5-5-5-5-5---|
Ab|--5-5-5-5-5-5-5-5---7-7-7-7-7-7-7-7---9-9-9-9-9-9-9-9---5-5-5-5-5-5-5-5---|
Eb|--------------------5-5-5-5-5-5-5-5---7-7-7-7-7-7-7-7---3-3-3-3-3-3-3-3---|
  1   Let's go          home  to  a       place we can       own      We 
  2   live there        in love forever   never have to be   alone
  3   Would you         try, would you    leave me for       guy      I've
   
   (x1)  Same progression, but with palm chucks at the end
eb|--------------------------------------------------------------------------|
Bb|--------------------------------------------------------------------------|
Gb|--7-7-7-7-7-7-7-7---------------------------------------------------------|
Db|--7-7-7-7-7-7-7-7---7-7-7-7-7-7-7-7---9-9-9-9-9-9-9-9---5-5-5-5-5-5-5-5---|
Ab|--5-5-5-5-5-5-5-5---7-7-7-7-7-7-7-7---9-9-9-9-9-9-9-9---5-5-5-5-5-5-5-5---|
Eb|--------------------5-5-5-5-5-5-5-5---7-7-7-7-7-7-7-7---3-3-3-3-3-3-3-3---|
                                                           P.M------------|
      sitting without   thinking          wishing you        inside

CHORUS ONE (0:27)

   (x3)
eb|--------------------------------------------------------------------------|
Bb|--------------------------------------------------------------------------|
Gb|--------------------------------------7-7-7-7-7-7-7-7---------------------|
Db|--5-5-5-5-5-5-5-5---7-7-7-7-7-7-7-7---7-7-7-7-7-7-7-7---5-5-5-5-5-5-5-5---|
Ab|--5-5-5-5-5-5-5-5---7-7-7-7-7-7-7-7---5-5-5-5-5-5-5-5---5-5-5-5-5-5-5-5---|
Eb|--3-3-3-3-3-3-3-3---5-5-5-5-5-5-5-5---------------------3-3-3-3-3-3-3-3---|
  1   When you wake      will call me    I will tell you that I miss you so
  2   I make records so that when I'm    You can hear me on your stereo
  3   Loooove                            Lo-oh-oh-oh-ooove      I think we're

   (x1)
eb|--------------------------------------------------------------------------|
Bb|--------------------------------------------------------------------------|
Gb|--------------------------------------7-7-7-7-7-7-7-7---------------------|
Db|--5-5-5-5-5-5-5-5---7-7-7-7-7-7-7-7---7-7-7-7-7-7-7-7---5-5-5-5-x-x---5---|
Ab|--5-5-5-5-5-5-5-5---7-7-7-7-7-7-7-7---5-5-5-5-5-5-5-5---5-5-5-5-x-x---5---|
Eb|--3-3-3-3-3-3-3-3---5-5-5-5-5-5-5-5---------------------3-3-3-3-x-x---3---|
      Loooove                            Oooh, oooh, ooh


VERSE TWO (0:55)

   (x1)
eb|--------------------------------------------------------------------------|
Bb|--------------------------------------------------------------------------|
Gb|--7-7-7-7-7-7-7-7---------------------------------------------------------|
Db|--7-7-7-7-7-7-7-7---7-7-7-7-7-7-7-7---9-9-9-9-9-9-9-9---5-5-5-5-5-5-5-5---|
Ab|--5-5-5-5-5-5-5-5---7-7-7-7-7-7-7-7---9-9-9-9-9-9-9-9---5-5-5-5-5-5-5-5---|
Eb|--------------------5-5-5-5-5-5-5-5---7-7-7-7-7-7-7-7---3-3-3-3-3-3-3-3---|
             I'm so tired   Since I       met you, I'm always  inspired

   (x1)
eb|--------------------------------------------------------------------------|
Bb|--------------------------------------------------------------------------|
Gb|--7-----------------------------------------------------------------------|
Db|--7-----------------7-----------------9-9-9-9-9-9-9-9---5-----------------|
Ab|--5-----------------7-----------------9-9-9-9-9-9-9-9---5-- HOLD ---------|
Eb|--------------------5-----------------7-7-7-7-7-7-7-7---3-----------------|
                                       P.M--------------|
       could teach the   really my         And we would    desired

SOLO (1:09)

**  Rhythm continues playing verse chords  **

   (x1)
eb|--------------------------------------------------------------------------|
Bb|--------------------------------------------------------------------------|
Gb|--11-9-11-9---------------------------------------------------------------|
Db|---------------11-9-11-9---------------------------7----------------------|
Ab|----------------------------9--9-7-9--9-7-9--9-7-9---9-7------------------|
Eb|--------------------------------------------------------------------------|

   (x1)
eb|--------------------------------------------------------10-12-12b14-10----|
Bb|----------10------------9-------------------------10-12----------------12-|
Gb|--11-9-11-------11-9-11---11-9--------------------------------------------|
Db|-------------------------------11-----------------------------------------|
Ab|- (1:16) ---------------------------9--9-7-9--9-7-------------------------|
Eb|--------------------------------------------------------------------------|

FINAL CHORUS (1:27)

   (x3)
eb|--------------------------------------------------------------------------|
Bb|--------------------------------------------------------------------------|
Gb|--------------------------------------7-7-7-7-7-7-7-7---------------------|
Db|--5-5-5-5-5-5-5-5---7-7-7-7-7-7-7-7---7-7-7-7-7-7-7-7---5-5-5-5-5-5-5-5---|
Ab|--5-5-5-5-5-5-5-5---7-7-7-7-7-7-7-7---5-5-5-5-5-5-5-5---5-5-5-5-5-5-5-5---|
Eb|--3-3-3-3-3-3-3-3---5-5-5-5-5-5-5-5---------------------3-3-3-3-3-3-3-3---|
  1   When you wake      will call me    I will tell you that I miss you so
  2   I make records so that when I'm    You can hear me on your stereo
  3   Loooove                            Lo-oh-oh-oh-ooove      I think we're

   (x1)
eb|--------------------------------------------------------------------------|
Bb|--------------------------------------------------------------------------|
Gb|--------------------------------------7-7-7-7-7-7-7-7---------------------|
Db|--5-5-5-5-5-5-5-5---7-7-7-7-7-7-7-7---7-7-7-7-7-7-7-7---5-5-5-5-x-x-x-x---|
Ab|--5-5-5-5-5-5-5-5---7-7-7-7-7-7-7-7---5-5-5-5-5-5-5-5---5-5-5-5-x-x-x-x---|
Eb|--3-3-3-3-3-3-3-3---5-5-5-5-5-5-5-5---------------------3-3-3-3-x-x-x-x---|
      Loooove                            Oooh, oooh, ooh

   (x2)
eb|--------------------------------------------------------------------------|
Bb|--------------------------------------------------------------------------|
Gb|--------------------------------------7-7-7-7-7-7-7-7---------------------|
Db|--5-5-5-5-5-5-5-5---7-7-7-7-7-7-7-7---7-7-7-7-7-7-7-7---5-5-5-5-5-5-5-5---|
Ab|--5-5-5-5-5-5-5-5---7-7-7-7-7-7-7-7---5-5-5-5-5-5-5-5---5-5-5-5-5-5-5-5---|
Eb|--3-3-3-3-3-3-3-3---5-5-5-5-5-5-5-5---------------------3-3-3-3-3-3-3-3---|
  1   When you wake      will call me    I will tell you that I miss you so
  2   I make records so that when I'm    You can hear me everywhere you go
      
OUTRO (2:04)

   (x1)      
eb|----------------------------|
Bb|----------------------------|
Gb|--7--------------------7----|
Db|--7----7----9----5--7--7----|
Ab|--5----7----9----5--7--5----|
Eb|-------5----7----3--5-------|
Добавлено: 01.06.2013
Другие материалы по этой песне:
  • Аккорды и текст

Страница создана 01.06.2013
http://primanota.ru/man-overboard/fm-dial-style-chords.htm
Привет, Гость.
Предлагаем пройти революционный курс по гитаре.
Подарок от PrimaNota.Ru, забирай!