PrimaNota.ru - самый крупный в мире бесплатный архив песенных текстов, аккордов, табулатур и нот


Man Overboard - Dreaming - текст песни, таба, видео

Регистрация Запомнить меня
Войти через:  Facebook Google Twitter Vk Yandex Mail.ru

Man Overboard - Dreaming - текст песни, таба, видео

Печатать
Просмотров: 211
I can't take credit for this; the video of this flawless cover is at 
http://youtu.be/gLB0KNYHVMM

This is the best I can figure out. The timing might be a little off.
But if you know this song well enough, it shouldn't be a problem.

"Took the same route to school, almost late again..."
e|-----------------------------------------\
B|----------------------------------------- \
G|------------66-------88-----------1010---  \4X
D|66----------66-------88-----------1010---  /
A|66----------44-------66-----------8-8---- / 
E|44---------------------------------------/

     "She could become my everything, a whisper..."
e|-----------------------------------------------\
B|----------------------------------------------- \
G|------------------------666666--------888888---  \2X
D|333333--------666666----666666--------888888---  /
A|333333--------666666----444444--------666666--- /
E|111111--------444444---------------------------/

"To catch you, would be all that I could honestly, ask for, from you..."
e|----------------------------------------------------------------------\
B|---------------------------------------------------------------------- \
G|-------------------66-6--------------------88-8-----------------------  \2X
D|--33-3-------------66-6--------66-6--------88-8-----------------------  /
A|--33-3-------------44-4--------66-6--------66-6----------------------- /
E|--11-1-------------------------44-4-----------------------------------/

                "And that's true..."
e|----------------\
B|---------------- \
G|---66-88-1010---  \2X
D|66-66-88-1010---  /
A|66-44-66-8-8---- /
E|44--------------/

"Somethin' 'bout the way she falls back asleep..."
e|-----------------------------------------\
B|----------------------------------------- \
G|------------66-------88-----------1010---  \4X
D|66----------66-------88-----------1010---  /
A|66----------44-------66-----------8-8---- / 
E|44---------------------------------------/


     "She could become my everything, a whisper..."
e|-----------------------------------------------\
B|----------------------------------------------- \
G|------------------------666666--------888888---  \2X
D|333333--------666666----666666--------888888---  /
A|333333--------666666----444444--------666666--- /
E|111111--------444444---------------------------/

"To catch you, would be all that I could honestly, ask for, from you..."
e|----------------------------------------------------------------------\
B|---------------------------------------------------------------------- \
G|-------------------66-6--------------------88-8-----------------------  \2X
D|--33-3-------------66-6--------66-6--------88-8-----------------------  /
A|--33-3-------------44-4--------66-6--------66-6----------------------- /
E|--11-1-------------------------44-4-----------------------------------/

2X then "And I don't know how many times that I would have to ask her..."
e|-----------
B|-----------
G|-----------
D|3\------6~-
A|3-(12X)-6~-
E|1/------4~-

  "And I don't know how many times that I would have to ask her if I'm..."
e|----------------------------------------------------------------------\
B|---------------------------------------------------------------------- \
G|-------------------66-6--------------------88-8-----------------------  \4X
D|--33-3-------------66-6--------66-6--------88-8-----------------------  /
A|--33-3-------------44-4--------66-6--------66-6----------------------- /
E|--11-1-------------------------44-4-----------------------------------/
Добавлено: 20.09.2013
Другие материалы по этой песне:
  • Аккорды и текст

Страница создана 05.09.2013
http://primanota.ru/man-overboard/dreaming-chords.htm
Привет, Гость.
Предлагаем пройти революционный курс по гитаре.
Подарок от PrimaNota.Ru, забирай!