PrimaNota.ru - самый крупный в мире бесплатный архив песенных текстов, аккордов, табулатур и нот


Man Or Astro Man - Fgmmmoonr2 - таба

Регистрация Запомнить меня
Войти через:  Facebook Google Twitter Vk Yandex Mail.ru

Man Or Astro Man - Fgmmmoonr2 - таба

Печатать
Просмотров: 32
Уроки эстрадного вокала в Санкт-Петербурге
Man Or Astroman?

F=(GmM(moon))/(r^2)

album: Your Weight On The Moon

Tabed by: Misiek

e-mail: poomada@wp.pl


crunch , reverb.

intro:

E----0-0--..-----1-1--..----3-3-..--/5-----------------|
A------------------------------------------------------|
D------------------------------------------------------|
G------------------------------------------------------|
B------------------------------------------------------|
e------------------------------------------------------|


riff 1

E-----5-5-5--------------------1-----------------------|
A------------7-5--3-3--0-2-0---------------------------|
D------------------------------------------------------|
G------------------------------------------------------|
B------------------------------------------------------|
e------------------------------------------------------|

E-----5-5-5--------------------------------------------|
A------------7-5---------------------------------------|
D------------------3-3-3---2-2-------------------------|
G------------------------------------------------------|
B------------------------------------------------------|
e------------------------------------------------------|

riff 2

E------------------------------------------------------|
A------------------------------------------------------|
D-----7-7-7-----7--5---3-3--3p5-3p5-3------------------|
G------------5-----------------------------------------|
B------------------------------------------------------|
e------------------------------------------------------|

E------------------------------------------------------|
A------------------------------------------------------|
D-----7-7-------7--------------------------------------|
G-----------5------5---7s9-9--7p5--7p5-----------------|
B------------------------------------------------------|
e------------------------------------------------------|

E------------------------------------------------------|
A----------------------------------------------0-0-0---|
D-----7-7-7-----7--5---3-3--3--2-2-0-0-0--3-2----------|
G------------5-----------------------------------------|
B------------------------------------------------------|
e------------------------------------------------------|


riff 3


E----/5-----3-3-3------1-1-0-1-1-----------------------|
A-----------------2-5----------------------------------|
D------------------------------------------------------|
G------------------------------------------------------|
B------------------------------------------------------|
e------------------------------------------------------|

E------------------------------------------------------|
A----------3-3-3---------------------------------------|
D----------------2-3--5-3-0----------------------------|
G------------------------------------------------------|
B------------------------------------------------------|
e------------------------------------------------------|


riff 4
           fast...
E------------------------------------------------------|
A------------------------------------------------------|
D-----3-3-3-3-3-3-3---0-2-0----------------------------|
G---------------------------3--------------------------|
B------------------------------------------------------|
e------------------------------------------------------|

then

E------------------------------------------------------|
A------0--0--0---0-------------------------------------|
D------2--2--2---2-------------------------------------|
G------2--2--2---2-------------------------------------|
B------------------------------------------------------|
e------------------------------------------------------|

riff 5

E-------3.----1.--------------------------------------|
A-------5.----3.------0--0--0-----0--0--0-------------|
D-------5.----3.------2--2--2-----2--2--2-------------|
G---------------------2--2--2-----2--2--2-------------|
B-----------------------------------------------------|
e-----------------------------------------------------|

E-------3.----1.------0--0--0--0--0--0----------------|
A-------5.----3.------2-------------------------------|
D-------5.----3.------2-------------------------------|
G-----------------------------------------------------|
B-----------------------------------------------------|
e-----------------------------------------------------|

repeat


21:56 2005-10-03
Добавлено: 18.12.2015
Другие материалы по этой песне:
  • Аккорды и текст

Страница создана 18.12.2015
http://primanota.ru/man-or-astro-man/fgmmmoonr2-chords.htm
Привет, Гость.
Предлагаем пройти революционный курс по гитаре.
Подарок от PrimaNota.Ru, забирай!