PrimaNota.ru - самый крупный в мире бесплатный архив песенных текстов, аккордов, табулатур и нот


Man Or Astro-man - Taxidermist Surf - таба, видео

Регистрация Запомнить меня
Войти через:  Facebook Google Twitter Vk Yandex Mail.ru

Man Or Astro-man - Taxidermist Surf - таба, видео

Печатать
Просмотров: 60
Song mostly in Em and solo from Em pentatonic.

d (down) and u (up) are the strumming pattern to help get the rhythm.


Part A

e|---------------------------------------------------------------------------|
B|---------------------------------------------------------------------------|
G|---------------------------------------------------------------------------|
D|------2----------0--5b--------2----------0---------------------------------|
A|-----------0--2--------------------0--2------------------------------------|
E|-0-----------------------0------------------2------------------------------|  X2


Part B
    Em                   C          B
     d    d  u    u  d    d  u  d    d  u  d
e||--7----7--7----7--7--------------------------------------------------------|
B||--8----8--8----8--8----5--5--5----4--4--4----------------------------------|
G||--9----9--9----9--9----5--5--5----4--4--4----------------------------------|
D||--9----9--9----9--9----5--5--5----4--4--4----------------------------------|
A||--7----7--7----7--7----3--3--5----2--2--2----------------------------------|
E||---------------------------------------------------------------------------|

    Em                   G          F#
    d    d  u    u  d    d  u  d    d  u  d
e|--7----7--7----7--7----3--3--3----2--2--2----------------------------------||
B|--8----8--8----8--8----3--3--3----2--2--2----------------------------------||
G|--9----9--9----9--9----4--4--4----3--3--3----------------------------------||
D|--9----9--9----9--9----5--5--5----4--4--4----------------------------------||
A|--7----7--7----7--7----5--5--5----4--4--4----------------------------------||
E|-----------------------3--3--3----2--2--2----------------------------------|| X2


    A
    d    d  u  d    d  u  d . . . . 
e|---------------------------------------------------------------------------|
B|---------------------------------------------------------------------------|
G|---------------------------------------------------------------------------|
D|--7----7--7--7----7--7--7----7--7--7----7--7--7----7--7--7----7--7--7------|
A|--7----7--7--7----7--7--7----7--7--7----7--7--7----7--7--7----7--7--7------|
E|--5----5--5--5----5--5--5----5--5--5----5--5--5----5--5--5----5--5--5------|


e|---------------------------------------------------------------------------|
B|---------------------------------------------------------------------------|
G|---------------------------------------------------------------------------|
D|--7--7--7----7--7--7-------------------------------------------------------|
A|--7--7--7----7--7--7-------------------------------------------------------|
E|--5--5--5----5--5--5-------------------------------------------------------|




Fill

e|---------------------------------------------------------------------------|
B|---------------------------------------------------------------------------|
G|---------------------------------------------------------------------------|
D|-/9--7-/5--7--5-/4--5--4-/2--4--5--4--2--0--2------------------------------|
A|---------------------------------------------------------------------------|
E|---------------------------------------------------------------------------|



Solo

While bass plays Part A

e|---------------------------------------------------------------------------|
B|---------------------------------------------------------------------------|
G|---------------------------------------------------------------------------|
D|-/9--9-9-9--8--7----7--5-----------5---------------------------------------|
A|--------------------------7--7--7-----7----7--7----------------------------|
E|---------------------------------------------------------------------------|  X2


e|---------------------------------------------------------------------------|
B|--------8-----------8-----10--8-----------8----------------8-------------8-|
G|-/9--9-----9--9--9-----9---------9--7--9-----9~---9--7-h9-------9--7-h9----|
D|---------------------------------------------------------------------------|
A|---------------------------------------------------------------------------|
E|---------------------------------------------------------------------------|


e|---------------------------------------------------------------------------|
B|------------8-----10--8----------------------------------------------------|
G|---9--7-h9-----9---------9--7----------------------------------------------|
D|---------------------------------------------------------------------------|
A|---------------------------------------------------------------------------|
E|---------------------------------------------------------------------------|

   
Bass follows the chords here (similar but not the same as Part B)
    E           D           E           C    B
e|---------------------------------------------------------------------------|
B|---------------------------------------------------------------------------|
G|--9--9--9--9-/7--7--7--7-/9--9--9--9-/5----4-------------------------------|
D|--9--9--9--9-/7--7--7--7-/9--9--9--9-/5----4-------------------------------|
A|--7--7--7--7-/5--5--5--5-/7--7--7--7-/3----2-------------------------------|
E|---------------------------------------------------------------------------|

    E           D
e|---------------------------------------------------------------------------|
B|--------------------------10b---10b-10b-10b-10b-10b------------------------|
G|--9--9--9--9-/7--7--7--7---------------------------------------------------|
D|--9--9--9--9-/7--7--7--7---------------------------------------------------|
A|--7--7--7--7-/5--5--5--5---------------------------------------------------|
E|---------------------------------------------------------------------------|


    E           D           E           C    B
e|---------------------------------------------------------------------------|
B|---------------------------------------------------------------------------|
G|--9--9--9--9-/7--7--7--7-/9--9--9--9-/5----4-------------------------------|
D|--9--9--9--9-/7--7--7--7-/9--9--9--9-/5----4-------------------------------|
A|--7--7--7--7-/5--5--5--5-/7--7--7--7-/3----2-------------------------------|
E|---------------------------------------------------------------------------|

    E           D        
e|---------------------------------------------------------------------------|
B|---------------------------------------------------------------------------|
G|--9--9--9--9-/7--7--7--7---------------------------------------------------|
D|--9--9--9--9-/7--7--7--7---------------------------------------------------|
A|--7--7--7--7-/5--5--5--5--7--7--6--6--5--5--4--4---------------------------|
E|---------------------------------------------------------------------------|


    E           D           E           C    B
e|---------------------------------------------------------------------------|
B|---------------------------------------------------------------------------|
G|--9--9--9--9-/7--7--7--7-/9--9--9--9-/5----4-------------------------------|
D|--9--9--9--9-/7--7--7--7-/9--9--9--9-/5----4-------------------------------|
A|--7--7--7--7-/5--5--5--5-/7--7--7--7-/3----2-------------------------------|
E|---------------------------------------------------------------------------|
  
    E           D                    u  d    d
e|--------------------------x--x--x--5--5b---5-------------------------------|
B|--------------------------x--x--x--5--5b---5-------------------------------|
G|--9--9--9--9-/7--7--7--7---------------------------------------------------|
D|--9--9--9--9-/7--7--7--7---------------------------------------------------|
A|--7--7--7--7-/5--5--5--5---------------------------------------------------|
E|---------------------------------------------------------------------------|


    E           D           E           C    B
e|---------------------------------------------------------------------------|
B|---------------------------------------------------------------------------|
G|--9--9--9--9-/7--7--7--7-/9--9--9--9-/5----4-------------------------------|
D|--9--9--9--9-/7--7--7--7-/9--9--9--9-/5----4-------------------------------|
A|--7--7--7--7-/5--5--5--5-/7--7--7--7-/3----2-------------------------------|
E|---------------------------------------------------------------------------|

    E           D        
e|---------------------------------------------------------------------------|
B|---------------------------------------------------------------------------|
G|--9--9--9--9-/7--7--7--7---------------------------------------------------|
D|--9--9--9--9-/7--7--7--7---------------------------------------------------|
A|--7--7--7--7-/5--5--5--5--7--7--6--6--5--5--4--4---------------------------|
E|---------------------------------------------------------------------------|




Song Structure - 
Part A X 2
Part B
Fill
Part A
Part B
Fill
Solo
Part B
Part B
Fill
Добавлено: 29.10.2014
Другие материалы по этой песне:
  • Аккорды и текст

Страница создана 29.10.2014
http://primanota.ru/man-or-astro-man-2/taxidermist-surf-chords.htm
Привет, Гость.
Предлагаем пройти революционный курс по гитаре.
Подарок от PrimaNota.Ru, забирай!