PrimaNota.ru - самый крупный в мире бесплатный архив песенных текстов, аккордов, табулатур и нот


Man Or Astro-man - Planet Collision - таба, видео

Регистрация Запомнить меня
Войти через:  Facebook Google Twitter Vk Yandex Mail.ru

Man Or Astro-man - Planet Collision - таба, видео

Печатать
Просмотров: 45
Tabbed by Brian (Ansigod) McCall  4/9/96

PLANET COLLISION - by Man...or Astro-man? as performed at the
====== =========   Mercury Theatre in Knoxville, TN on 2/9/96.
                   Available on the new record Experiment Zero.

Intro (played twice)

|-------------------------------------------------------------------|
|-------------------------------------------------------------------|
|-2------------------------------2----------------------------------|
|-2--2-2-1-1-0-0-------------3-3-2--2-2-1-1-0-0-------------3-3-----|
|----------------3-3-2-2-3-3--------------------3-3-2-2-3-3---------|
|-------------------------------------------------------------------|

|-------------------------------------------------------------------|
|-------------------------------------------------------------------|
|-2--------------------------0-0-2--------------2h3-3-3-2h3-3-3-----|
|-2--2-2-1-1-0-0---------3-3-----2--2-2-1-1-2-2---------------------|
|----------------3-3-2-2--------------------------------------------|
|-------------------------------------------------------------------|

*1

|-------------------------------------------------------------|
|-------------------------------------------------------------|
|-2--2-2-2-2-2-2-2--2-2-2-2-2-2-2--2-2-2-2-2-2-2--2-2-2-2-2-2-|
|-2--2-2-2-2-2-2-1--1-1-1-1-1-1-0--0-0-0-0-0-0-1--1-1-1-1-1-1-|
|-------------------------------------------------------------|
|-------------------------------------------------------------|

|-------------------------------------------------------------|
|-------------------------------------------------------------|
|-2--2-2-2-2-2-2-2--2-2-2-2-2-2-2--2-2-2-2-2-2-2--2-2-2-2-2-2-|
|-2--2-2-2-2-2-2-1--1-1-1-1-1-1-0--0-0-0-0-0-0-1--1-1-1-1-1-1-|
|-------------------------------------------------------------|
|-------------------------------------------------------------|

|-------------------------------------------------------------------|
|-------------------------------------------------------------------|
|-2-2-2-2-2-2-2-2-2-2-2-2-2-2-2-2-5-5-5-5-5-5-5-5-5-5-5-5-5-5-5-5---|
|-2-2-2-2-2-2-2-2-1-1-1-1-1-1-1-1-5-5-5-5-5-5-5-5-5-5-5-5-5-5-5-5---|
|---------------------------------3-3-3-3-3-3-3-3-3-3-3-3-3-3-3-3---|
|-------------------------------------------------------------------|

|-------------------------------------------------------------------|
|-------------------------------------------------------------------|
|-2-2-2-2-2-2-2-2-2-2-2-2-2-2-2-2-5-5-5-5-5-5-5-5-5-5-5-5-5-5-5-5---|
|-2-2-2-2-2-2-2-2-1-1-1-1-1-1-1-1-5-5-5-5-5-5-5-5-5-5-5-5-5-5-5-5---|
|---------------------------------3-3-3-3-3-3-3-3-3-3-3-3-3-3-3-3---|
|-------------------------------------------------------------------|

*2

|----------------------------------------------------------------------|
|----------------------------------------------------------------------|
|-2--2---7--7-5-7-X-10-10--9--9-7-9--2--2---7--7-5-7-X-8--8---7--7-5-7-|
|-2--2---7--7-5-7-X-10-10--9--9-7-9--2--2---7--7-5-7-X-8--8---7--7-5-7-|
|-0--0---5--5-3-5-X-8--8---7--7-5-7--0--0---5--5-3-5-X-6--6---5--5-3-5-|
|-----------------X----------------------------------X-----------------|

|----------------------------------------------------------------------|
|----------------------------------------------------------------------|
|-2--2---7--7-5-7-X-10-10--9--9-7-9--2--2---7--7-5-7-X-8--8---7--7-5-7-|
|-2--2---7--7-5-7-X-10-10--9--9-7-9--2--2---7--7-5-7-X-8--8---7--7-5-7-|
|-0--0---5--5-3-5-X-8--8---7--7-5-7--0--0---5--5-3-5-X-6--6---5--5-3-5-|
|-----------------X----------------------------------X-----------------|

repeat *1

|-------------------------------------------------------------------|
|-------------------------------------------------------------------|
|-2h3-3-3-2h3-3-3-2h3-3-3-2h3-3-3-2h3-3-3-2h3-3-3-2h3-3-3-2h3-3-3---|
|-------------------------------------------------------------------|
|-------------------------------------------------------------------|
|-------------------------------------------------------------------|

repeat *2

End on A |X0222X|
Добавлено: 06.05.2016
Другие материалы по этой песне:
  • Аккорды и текст

Страница создана 06.05.2016
http://primanota.ru/man-or-astro-man-2/planet-collision-chords.htm
Привет, Гость.
Предлагаем пройти революционный курс по гитаре.
Подарок от PrimaNota.Ru, забирай!