PrimaNota.ru - самый крупный в мире бесплатный архив песенных текстов, аккордов, табулатур и нот


Man Or Astro-man - Name Of Numbers - таба, видео

Регистрация Запомнить меня
Войти через:  Facebook Google Twitter Vk Yandex Mail.ru

Man Or Astro-man - Name Of Numbers - таба, видео

Печатать
Просмотров: 49
----------------------------------------------------------------------
                        Name of Numbers ...Man or Astroman?
----------------------------------------------------------------------

By:Hip-Hepcat.

   (intro)part I
e|--------------------------------------------------------------------|
B|--------------------------------------------------------------------|
G|--------------------------------------------------------------------|
D|--------------------------------------------------------------------|
A|---------2-2-1-1---------------3------------2-2-1-1-----------------|
E|0-0--3-3----------2-2-3-3--2-2----0-0--3-3---------2-2-3-3-2-2-/\---|
                                                               slide
up
                                                                    2X
   partII                E AND B
e|---0----0---2------0----5--3------0----0--2-----0---7---8-----------|
B|---0----1---3------0----4--2------0----1--3-----0---7---8-----------|
G|---1----0---2------1--------------1----0--2-----1---8---9-----------|
D|---2----2---0------2--------------2----2--0-----2---9--10-----------|
A|---2----3----------2--------------2----3--------2---9--10-----------|
E|---0---------------0--------------0-------------0---7--8------------|
     ~trem on E chords              ~             ~

repeat intro

repeat partII with this ending:

             E--B/C/B--F#/G/F#--C#/D/C#---B

e|4-4-4-4-----7-7-7-7-----9--9--9--9--slide-7-slide4-slide7-slide4----|
b|5-5-5-5-----8-8-8-8---==10-10-10-10-/////-8-////-5-\\\\-8-////-5----|

                                                                    2X

repeat part II end with:

                         E--B/C/B--E
Добавлено: 06.05.2016
Другие материалы по этой песне:
  • Аккорды и текст

Страница создана 06.05.2016
http://primanota.ru/man-or-astro-man-2/name-of-numbers-chords.htm
Привет, Гость.
Предлагаем пройти революционный курс по гитаре.
Подарок от PrimaNota.Ru, забирай!