PrimaNota.ru - самый крупный в мире бесплатный архив песенных текстов, аккордов, табулатур и нот


Man Or Astro-man - Jokers Wild - таба, видео

Регистрация Запомнить меня
Войти через:  Facebook Google Twitter Vk Yandex Mail.ru

Man Or Astro-man - Jokers Wild - таба, видео

Печатать
Просмотров: 45
Song:   Joker's Wild
Artist: Man... or Astro-Man? covering The Ventures
Album:  Destroy All Astro-Men!

Tabbed by Brian Neal - bneal@zeus.ia.net
Polished by DjChrispy - djchrispy@gmail.com
Notes:

* Standard Tuning
* 3/5 means fret and strike 3 then slide upto 5
* Speed picking is indicated by [sp] above the note

|----|
|----|
|o--o| Repeat stuff between here!
|o--o|
|----|
|----|


Intro Chords: (listen for the exact rhythm)

  Am   F    Am   F    Am   F    E5
--5----1----5----1----5----1--------------------------------------
--5----1----5----1----5----1--------------------------------------
--5----2----5----2----5----2--------------------------------------
--7----3----7----3----7----3----2---------------------------------
--7----3----7----3----7----3----2---------------------------------
--5----1----5----1----5----1----0---------------------------------

Main Riff:

Play this twice
|--------------------------------------------------------------|
|---------------------------------------------/----------------|
|o-------------------------------------------/-slide up neck--o|
|o--------------------------3-0-0-5-3-3-2-2-2-----------------o|
|-0-0-2-0-3--0-2-0-3--0-2-0------------------------------------|
|--------------------------------------------------------------|

Play this 3 times               Main Riff Ending
|-----------------------------|---------5-5--6666--5-5-6666----|
|-----------------------------|--1------5-5--6666--5-5-6666----|
|o---------------------------o|--2------5-5--6666--5-5-6666----|
|o--2-2----------------------o|--2-----------------------------|
|-------3--000-----2---3-3-0---|--0-----------------------------|
|----------------0---0---------|--------------------------------|

Repeat Main Riff, this time ending with

|------10-10--111111--10-10--111111----------------------------|
|-1----10-10--111111--10-10--111111--(thats the 11th fret)-----|
|-2----10-10--111111--10-10--111111----------------------------|
|-2------------------------------------------------------------|
|-0------------------------------------------------------------|
|--------------------------------------------------------------|

Main riff, modulated up:

Play twice
|---------------------------------------------/----------------|
|--------------------------------------------/-slide up neck---|
|o--------------------------3-0-0-5-3-3-2-2-2-----------------o|
|o0-0-2-0-3--0-2-0-3--0-2-0-----------------------------------o|
|--------------------------------------------------------------|
|--------------------------------------------------------------|

Play this 3 times                Dm Am
|-----------------------------|--1------5-5--6666--5-5-6666----|
|-----------------------------|--3--1---5-5--6666--5-5-6666----|
|o--2-2----------------------o|--2--2---5-5--6666--5-5-6666----|
|o------3--000----2---3-3-0--o|--0--2--------------------------|
|---------------0---0---------|-----0--------------------------|
|-----------------------------|--------------------------------|

Then repeat the main riff with a couple extra bars of
the ending triple stop deal.
Добавлено: 15.04.2016
Другие материалы по этой песне:
  • Аккорды и текст

Страница создана 15.04.2016
http://primanota.ru/man-or-astro-man-2/jokers-wild-chords.htm
Привет, Гость.
Предлагаем пройти революционный курс по гитаре.
Подарок от PrimaNota.Ru, забирай!