PrimaNota.ru - самый крупный в мире бесплатный архив песенных текстов, аккордов, табулатур и нот


Man Or Astro-man - Invasion Of The Dragonmen - таба, видео

Регистрация Запомнить меня
Войти через:  Facebook Google Twitter Vk Yandex Mail.ru

Man Or Astro-man - Invasion Of The Dragonmen - таба, видео

Печатать
Просмотров: 123
Уроки эстрадного вокала в Санкт-Петербурге
Part A - 

   
   E
e|---------------------------------------------------------------------------|
B|---------------------------------------------------------------------------|
G|---------------------------------------------------------------------------|
D|---------------------------------------------------------------------------|
A|-------2-----3--3--2--2----------------------------------------------------|
E|-0--0-----0----------------------------------------------------------------|x4


A
e|---------------------------------------------------------------------------|
B|---------------------------------------------------------------------------|
G|---------------------------------------------------------------------------|
D|-------2-----3--3--2--2----------------------------------------------------|
A|-0--0-----0----------------------------------------------------------------|
E|---------------------------------------------------------------------------|x2

   
   E
e|---------------------------------------------------------------------------|
B|---------------------------------------------------------------------------|
G|---------------------------------------------------------------------------|
D|---------------------------------------------------------------------------|
A|-------2-----3--3--2--2----------------------------------------------------|
E|-0--0-----0----------------------------------------------------------------|x2






Part B -  (d-down, u-up shows strumming for chords to help timing)

   C      D            A
   d  d u d  d u       d   u d u
e|---------------------------------------------------------------------------|
B|-5--5-5-7--7-7-------2---2-2-2---------------------------------------------|
G|-5--5-5-7--7-7-------2---2-2-2---------------------------------------------|
D|-5--5-5-7--7-7-------2---2-2-2---------------------------------------------|
A|-3--3-3-5--5-5-------0---0-0-0---------------------------------------------|
E|---------------0-0-3-------------------------------------------------------|



   C       D            E
   d  d u d  d u       d   u d u
e|---------------------------------------------------------------------------|
B|-5--5-5-7--7-7-------------------------------------------------------------|
G|-5--5-5-7--7-7-------------------------------------------------------------|
D|-5--5-5-7--7-7-------2---2-2-2---------------------------------------------|
A|-3--3-3-5--5-5-------2---2-2-2---------------------------------------------|
E|---------------0-0-3-0---0-0-0---------------------------------------------|


   C      D            A
   d  d u d  d u       d   u d u
e|---------------------------------------------------------------------------|
B|-5--5-5-7--7-7-------2---2-2-2---------------------------------------------|
G|-5--5-5-7--7-7-------2---2-2-2---------------------------------------------|
D|-5--5-5-7--7-7-------2---2-2-2---------------------------------------------|
A|-3--3-3-5--5-5-------0---0-0-0---------------------------------------------|
E|---------------0-0-3-------------------------------------------------------|


   C       D            A
   d  d u d  d u d   u  d   d   d   d
e|---------------\12-12-12--12--12--12---------------------------------------|
B|-5--5-5-7--7-7-\12-12-12--12--12--12---------------------------------------|
G|-5--5-5-7--7-7-------------------------------------------------------------|
D|-5--5-5-7--7-7-------------------------------------------------------------|
A|-3--3-3-5--5-5-------------------------------------------------------------|
E|---------------------------------------------------------------------------|



Solo - Over part A chords x 2


e|---------------------------------------------------------------------------|
B|-10-8-10b12--12-12-12-12-12-12-12-12-12-12-12-12-12-10-8-------------------|
G|---------------------------------------------------------------------------|
D|---------------------------------------------------------------------------|
A|---------------------------------------------------------------------------|
E|---------------------------------------------------------------------------|



e|-------------------------------10------------------------------------------|
B|-10-8-10b12--12-12-12-12-12-12-12-12-12-12-12-12-12-10-8-------------------|
G|---------------------------------------------------------------------------|
D|---------------------------------------------------------------------------|
A|---------------------------------------------------------------------------|
E|---------------------------------------------------------------------------|



e|-----------------------------------------------------------------7---------|
B|-----8---8---8-10b12--12-10-12-10----------------8b--------------8---------|
G|-7-9---9---9----------------------9-7-9~---9-7-9----9~---9-9-7h9---9-7-----|
D|---------------------------------------------------------------------------|
A|---------------------------------------------------------------------------|
E|---------------------------------------------------------------------------|




Song structure -

Part A
Part B
Part A
Part B
Solo (Part A x 2)
Part B end
Добавлено: 03.12.2014
Другие материалы по этой песне:
  • Аккорды и текст

Страница создана 03.12.2014
http://primanota.ru/man-or-astro-man-2/invasion-of-dragonmen-chords.htm
Привет, Гость.
Предлагаем пройти революционный курс по гитаре.
Подарок от PrimaNota.Ru, забирай!