PrimaNota.ru - самый крупный в мире бесплатный архив песенных текстов, аккордов, табулатур и нот


Man Or Astro-man - Interstellar Hardrive - таба, видео

Регистрация Запомнить меня
Войти через:  Facebook Google Twitter Vk Yandex Mail.ru

Man Or Astro-man - Interstellar Hardrive - таба, видео

Печатать
Просмотров: 80
-------------------------------------------------------------------------------
                  Interstellar Hardrive - Man or Astro-Man
-------------------------------------------------------------------------------
Tabbed by: ninjazula3141
E-mail: ninjazula3141@gmail.com

Tuning: E Standard

CURRENTLEY A WORK IN PROGRESS, MISSING (I THINK) ONE PART


e|---------------------------------------------------------------------------------------------------|
B|---------------------------------------------------------------------------------------------------|
G|---------------------------------------------------------------------------------------------------|
D|------------------00000000-11111111-33333333------------------55555555-33333333-11111111-----------|
A|-0000000000000000----------------------------0000000000000000--------------------------------------|
E|---------------------------------------------------------------------------------------------------|

e|------------------------------------------------------------------------5-7-6-|
B|-----------------------------------5--------------------10\-----6-5-7-8-------|
G|-----------------------------2-4-3---4-3-----9\-----4-3-----5-6---------------|
D|--------------8\-----3-2-4-5-------------3-2----4-5---------------------------|
A|---7\-----2-1----3-4----------------------------------------------------------|
E|-0----2-3---------------------------------------------------------------------|

e|12-10-9-10-9---------------------------------------------------------------------|
B|-------------13-10----10---------------------------------------------------------|
G|-------------------12----10-9---9---9-7-6-7-6------------------------------------|
D|----------------------------------------------10-7----7--------------------------|
A|------------------------------7---7----------------10---8-7---7------------------|
E|------------------------------------------------------------0---0----------------|

************************************

| /   slide up
| \   slide down
| h   hammer-on
| p   pull-off
| ~   vibrato
| +   harmonic
| x   Mute note
| b   Bend
| pb  Pre-bend
| br  Bend release
| pbr Pre-bend release
| brb Bend release bend

************************************
Добавлено: 10.06.2015
Другие материалы по этой песне:
  • Аккорды и текст

Страница создана 10.06.2015
http://primanota.ru/man-or-astro-man-2/interstellar-hardrive-chords.htm
Привет, Гость.
Предлагаем пройти революционный курс по гитаре.
Подарок от PrimaNota.Ru, забирай!