PrimaNota.ru - самый крупный в мире бесплатный архив песенных текстов, аккордов, табулатур и нот


Man Or Astro-man - Espanto Del Futuro - таба, видео

Регистрация Запомнить меня
Войти через:  Facebook Google Twitter Vk Yandex Mail.ru

Man Or Astro-man - Espanto Del Futuro - таба, видео

Печатать
Просмотров: 81
"Espanto Del Futuro"
Man... or Astro-Man?
Tabbed by Brian McGibbon Jun-2003

Part 1 (play twice)
Note - it seems the '10' and '9' are played two times on various sequences.
should be able to hear on the record...

x----------------------------------------------------------------------------|
x----------------------------------------------------------------------------|
x---14-14-14--14--10--12-12-12--9---10-10-10--7-9->10-7-7-7-7-7--------------|
x----------------------------------------------------------------------------|
x----------------------------------------------------------------------------|
x----------------------------------------------------------------------------|
part 2
x--------------------------------------------------------------------------|
x----------------3-3-------------------------------------------------------|
x--2--2-2--------2-2-----------------------------2-2-2-2-2-----------------|
x--2--2-2----0---0-0--3-3-2-0---2-2-2-2--3>2>----2-2-2-2-2-----------------|
x--0--0-0--3-----------------------------------3-0-0-0-0-0-----------------|
x--------------------------------------------------------------------------|
part 2a
x--------------------------------------------------------------------------|
x----------------3-3-------------------------------------------------------|
x--2--2-2--------2-2-------------------------------------------------------|
x--2--2-2----0---0-0--3-3-2-0--2-2-2-2-2-3>5-5-5-5-5-----------------------|
x--0--0-0--3---------------------------------------------------------------|
x--------------------------------------------------------------------------|
Part 3
x---------------------------------------------------------------------------|
x--3--3-3--------------3--3-3---------------3--3-3--------------------------|
x--2--2-2--------------2--2-2---------------2--2-2-----------2--2-2-2-------|
x--0--0-0--3>2>0-------0--0-0--3>2>0--------0--0-0--3>2>0----2--2-2-2-------|
x----------------3-------------------3--------------------3--0--0-0-0-3-0-3-|
x---------------------------------------------------------------------------|

x---------------------------------------------------------------------------|
x--3--3-3--------------3--3-3---------------3--3-3--------------------------|
x--2--2-2--------------2--2-2---------------2--2-2--------------2-2-2-2-2-2-|
x--0--0-0--3>2>0-------0--0-0--3>2>0--------0--0-0--3>2>0-------2-2-2-2-2-2-|
x----------------3-------------------3--------------------3--0--0-0-0-0-0-0-|
x---------------------------------------------------------------------------|
part 4
x--------------------------------------------------------------------------|
x--------------------------------------------------------------------------|
x--3-3-3-3-2-2-2-2-0-0-0-0-2-3-2-2-2-2-2-2-2-2-2---------------------------|
x--------------------------------------------------------------------------|
x--------------------------------------------------------------------------|
x--------------------------------------------------------------------------|
Part 4a
x--------------------------------------------------------------------------|
x--------------------------------------------------------------------------|
x--------------------------------------------------------------------------|
x--3-3-3-3-2-2-2-2-0-0-0-0-2-3-2-2-2-2-2--7-7-5-5-3-3 2-2------------------|
x--------------------------------------------------------------------------|
x--------------------------------------------------------------------------|
rt 5
x--------------------------------------------------------------------------|
x----------------------------6-6-6-3-3-3-3-3-3-3-3-3-----------------------|
x-------------------3-3-3-3------------------------------------------------|
x----------0-0-0-0---------------------------------------------------------|
x--------------------------------------------------------------------------|
x--3-3-3-3-----------------------------------------------------------------|
part 5a
x---------------------------------------------------------------------------|
x------------------------------------------------------3~~------------------|
x------------------------------------------------------2~~--------------2-2-|
x------------------------------------------------------0~~--------------2-2-|
x--3-3-3-3-1-1-1-1-0-0-0-0---------0-0-0-0-3-3-3-3-3-3----3-3-3-3-3-3-1-0-0-|
x--------------------------3-3-3-3------------------------------------------|
part 5b
x-----------------------------------------------------------------------------|
x----------------------------------------------------------3~~----------------|
x----------------------------------------------------------2~~------------2-2-|
x----------------------------------------------------------0~~------------2-2-|
x--0-0-0-1-0-1-0-------------------------0-0-0-0-3-3-3-3-3----3-3-3-3-3-1-0-0-|
x----------------3-3-3-3-3-3-1-1-3-1-3-3--------------------------------------|
part 5c
x--------------------------------------------------------------------------|
x------------------------------------3~~-----------------------------------|
x------------------------------------2~~-----------------------------------|
x------------------------------------0~~-----------------------------------|
x--0-0-0-1-0-1-0-----------------------------------------------------------|
x----------------3-3-3-3-1-1-0-0-0-0---------------------------------------|
Добавлено: 15.04.2016
Другие материалы по этой песне:
  • Аккорды и текст

Страница создана 15.04.2016
http://primanota.ru/man-or-astro-man-2/espanto-del-futuro-chords.htm
Привет, Гость.
Предлагаем пройти революционный курс по гитаре.
Подарок от PrimaNota.Ru, забирай!