PrimaNota.ru - самый крупный в мире бесплатный архив песенных текстов, аккордов, табулатур и нот


Man Or Astro-man - Escape Through The Air Vent Fixed - таба, видео

Регистрация Запомнить меня
Войти через:  Facebook Google Twitter Vk Yandex Mail.ru

Man Or Astro-man - Escape Through The Air Vent Fixed - таба, видео

Печатать
Просмотров: 48
Escape Through The Air Vent
By Man or Astro-Man?
Tabbed by DjChrispy
Djchrispy@gmail.com

I always wanted to be a top secret agent....
-Fixed: It was penatonic! Duh im dumb!
part 1                                           part 2
e-----------------------------------------------|--------------------------------------|
b-----------------------------------------------|--------------------------------------|
g-----------------------------------------------|-----14-14-17-14-14-17-14-14-17-14-14-|
d------7-7----------5-5-------------------------|--------------------------------------|
a--5-5----------8-8-----4-4-5-7-----------------|-X8-----------------------------------|
E----------5-5----------------------------------|--------------------------------------|

e----------------------------------------------------------------------------------------|
b----------------------------------------------------------------------------------------|
g----------------------------14-14-17-14-14-17-14-14-17-14-14----------------------------|
d----10-10-10-10--7-7-7-7-7------------------------------------10-10-10-10---14-14-14-14-|
a-----8--8--8--8--5-5-5-5-5--------------------------------------------------12-12-12-12-|
E----------------------------------------------------------------------------------------|
*1, *2, then:
e------------|-------------------------|---------------------------------------------|
b------------|-------------------------|---------------------------------------------|
g------------|-------------------------|---------------------------------------------|
d------------|-------------------------|---------------------------------------------|
a------------|-------------------------|X5---5-3-0-3-5-5-3-3-3-----------------------|
E------------|---5-3-1-0-1-1-1-0-1-1-1-|-----------------------5-3-1-0-1-1-1-0-1-1-1-|

e---------------------------|---------------------------------------------------|
b---------------------------|---------------------------------------------------|
g---------------------------|---------------------------------------------------|
d----------------------7--5~|------7-7----------5-5--------12-12-12-------------|
a--3--3--3-3-3-3/5-5---5--3~|--5-5----------8-8-----4-4-5--10-10-10-------------|
E---------------------------|----------5-5--------------------------------------|
Добавлено: 12.04.2016
Другие материалы по этой песне:
  • Аккорды и текст

Страница создана 12.04.2016
http://primanota.ru/man-or-astro-man-2/escape-through-air-vent-fixed-chords.htm
Привет, Гость.
Предлагаем пройти революционный курс по гитаре.
Подарок от PrimaNota.Ru, забирай!