PrimaNota.ru - самый крупный в мире бесплатный архив песенных текстов, аккордов, табулатур и нот


Man Or Astro-man - Cowboy Playing Dead - таба, видео

Регистрация Запомнить меня
Войти через:  Facebook Google Twitter Vk Yandex Mail.ru

Man Or Astro-man - Cowboy Playing Dead - таба, видео

Печатать
Просмотров: 60
 You should know how to play these if you've heard the song
           |--------------------|R
           |--------------------|E
           |-5--6--5--3---------|P You sir..Should hang onto yer hat
           |-5--6--5--3---------|E
           |-3--4--3--1---------|A
           |--------------------|T

         YEEHAW!
     |--------------------------------------------|R
     |--------------------------------------------|E
     |--------------------------------------------|P
     |--------------------------------------------|E
     |-----1-3---4-3-1-3------1-3---4-6-4-3---/---|A
     |-1-1-----3----------1-1-----3---------------|T


       play opening chords

        YEEEEEEEEEEEEHAW!
     |--------------------------------------------|R
     |--------------------------------------------|E
     |-----3-5---6-5-3-5------3-5---6-8-6-5--/----|P
     |-3-3-----5----------3-3-----5---------------|E
     |--------------------------------------------|A
     |--------------------------------------------|T

            (chord section dos) yahahahahayooo!
     |----------------------------------------------|R
     |----------------------------------------------|E
     |-5--5-5-5-5--5-5-5-5--5-5-5-6-6-6-5-----------|P
     |-5--5-5-5-5--5-5-5-5--5-5-5-6-6-6-5-----------|E
     |-3--3-3-3-3--3-3-3-3--3-3-3-4-4-4-3-----------|A
     |----------------------------------------------|T

           Back into intro chords

     |----------------------------------------------|
     |----------------------------------------1-1---|
     |-3-3-1------------------3-3-1-3-3-1-3-3-------|
     |-------3-3-1-3-3-1-3-3------------------------|
     |----------------------------------------------|
     |----------------------------------------------|

         Speed picking
      |------------------------4-4-4-4--------|
      |-6-6-6-4-6-6-6-4-6-6-6-6---------------|
      |---------------------------------------|
      |---------------------------------------|
      |---------------------------------------|
      |---------------------------------------|

      |----------------------------------------|
      |-6-6-6-4-6-6-6-4-6-6-6-4----------------|
      |-------------------------5--------------|
      |----------------------------------------|
      |----------------------------------------|
      |----------------------------------------|

  Chord section 1, then chord section 2 and that's it!
Добавлено: 12.04.2016
Другие материалы по этой песне:
  • Аккорды и текст

Страница создана 12.04.2016
http://primanota.ru/man-or-astro-man-2/cowboy-playing-dead-chords.htm
Привет, Гость.
Предлагаем пройти революционный курс по гитаре.
Подарок от PrimaNota.Ru, забирай!