PrimaNota.ru - самый крупный в мире бесплатный архив песенных текстов, аккордов, табулатур и нот


Man Or Astro-man - Clean Up On Aisle 9 Turn Up The Monitors - таба, видео

Регистрация Запомнить меня
Войти через:  Facebook Google Twitter Vk Yandex Mail.ru

Man Or Astro-man - Clean Up On Aisle 9 Turn Up The Monitors - таба, видео

Печатать
Просмотров: 81
Song Structure - 

Bass intro
"Verse 1" = Riff 1 x 4
"Chorus" = Riff 2 then pause
"Verse 2" = Riff 1 x 2
"Chorus"
Solo
"Chorus" end

Song is mostly from Am pentatonic scale

Tab - 

Riff 1 


e|---------------------------------------------------------------------------|
B|---------------------------------------------------------------------------|
G|-----5-----------------------------5---------------------------------------|
D|---------------------------------------------------------------------------|
A|-------------5---------5--------------------5---5-5-4-3--------------------|
E|-5-5---5-8-8---3-5-7-8---8-7-5-5-5----5-8-8---3-3-3-2-1--------------------|


Riff 2


e|---------------------------------------3--3-3--3-3--------------------------|
B|---------------------------------------3--3-3--3-3--------------------------|
G|---------------------------------------4--4-4--4-4--------------------------|
D|---------------------------------------3--3-3--3-3--------------------------|
A|--5--5-5-4--4-5--5-5--7---5--5-5-4--4---------------------------------------|
E|--3--3-3-2--2-3--3-3--5---3--3-3-2--2---------------------------------------| x 2

e|-5-5-5-5-5-5---------------------------------------------------------------|
B|-5-5-5-5-5-5--etc----------------------------------------------------------|
G|-5-5-5-5-5-5---------------------------------------------------------------|
D|---------------------------------------------------------------------------|
A|---------------------------------------------------------------------------|
E|---------------------------------------------------------------------------|






Solo

e|---------------------------------------------------------------------------|
B|---------------------------------------------------------------------------|
G|---5------5b--5b-5r-5-5-5/7-7/9-7-5--7b9-9r7-7-5-7b8r7-7-7-----------------|
D|---------------------------------------------------------------------------|
A|---------------------------------------------------------------------------|
E|-5---5-8-------------------------------------------------------------------|


e|-55555555/8888888888-10-88-10-88-1010101010101010--------------------------|
B|-55555555/8888888888-10-88-10-88-1010101010101010---------------------------|
G|---------------------------------------------------------------------------|
D|---------------------------------------------------------------------------|
A|---------------------------------------------------------------------------|
E|---------------------------------------------------------------------------|


e|--------8---------8---------------12----------12-------12-------12---------|
B|--10-10---10-8-10-----8-10-10--10----13----10----13-10----13-10----13------|
G|---------------------------------------------------------------------------|
D|---------------------------------------------------------------------------|
A|---------------------------------------------------------------------------|
E|---------------------------------------------------------------------------|


e|----12------------------8-----888-8-8---------------5-5-5-5----5-5----5----|
B|-10----13---10b12-10-10-------888-8-8---------------5-5-5-5----5-5----5----|
G|----------------------------------------7b-7b-5-7b----------7b-----7b------|
D|---------------------------------------------------------------------------|
A|---------------------------------------------------------------------------|
E|---------------------------------------------------------------------------|


e|---------------------------------------------------------------------------|
B|---------------5----------------------5------------------------------------|
G|-7b-7b-5-7-7b9---9r7-5--------5-7-7b9---7-5-7p5--------------5-------------|
D|------------------------------------------------7-5-7--7-5h7---------------|
A|---------------------------------------------------------------------------|
E|---------------------------------------------------------------------------|


e|---------------------------------------------------------------------------|
B|---------------------------------------------------------------------------|
G|--------------5----------------5-----5-7b9-7-5-7-7--7~--7-7-7~-------------|
D|-7-5-7--7-5h7-----7-5-7--7-5h7-----7---------------------------------------|
A|---------------------------------------------------------------------------|
E|---------------------------------------------------------------------------|


e|---------------------------5----5-5-8-5------------------------------------|
B|-------5-------------------5----5-5-8-5------------------------------------|
G|-7-7b9---9r7-7----7b-7b-7b---7b---------5-7b9-9r-9r7-7--5-7----------------|
D|---------------------------------------------------------------------------|
A|---------------------------------------------------------------------------|
E|---------------------------------------------------------------------------|


e|---------------------------------------------------------------------------|
B|---------------------------------------------------------------------------|
G|-------------5b------------------------------------------------------------|
D|---------5-7-----7---7h10--7-10---12b*9------------------------------------|
A|-5-5-5-7-------------------------------------------------------------------|
E|---------------------------------------------------------------------------|

Добавлено: 02.07.2014
Другие материалы по этой песне:
  • Аккорды и текст

Страница создана 02.07.2014
http://primanota.ru/man-or-astro-man-2/clean-up-on-aisle-9-turn-up-monitors-chords.htm
Привет, Гость.
Предлагаем пройти революционный курс по гитаре.
Подарок от PrimaNota.Ru, забирай!