PrimaNota.ru - самый крупный в мире бесплатный архив песенных текстов, аккордов, табулатур и нот


Man Or Astro-man - Alpha Surfari - таба, видео

Регистрация Запомнить меня
Войти через:  Facebook Google Twitter Vk Yandex Mail.ru

Man Or Astro-man - Alpha Surfari - таба, видео

Печатать
Просмотров: 74
Alpha Surfari, as performed by
Man... or Astro-Man? from the album Project Infinity
Originally by The (Original) Surfaris

Tabbed by Brian Neal - bneal@zeus.ia.net

Notes:

* Standard Tuning
* 3/5 means fret and strike 3 then slide upto 5
* Speed picking is indicated by [sp] above the note


Intro:                 Part A
----------------------|-------------------------------------------|
----------------------|-------------------------------------------|
----------------------|-------------------------------------------|
----------------------|------------------------------[sp]---------|
------2-2-0-0---------|-------------------------------2-----------|
-12\----------3-3-2-2-|-0-2-3-023-0-2-3-023-0-2-3-023-------------|

[....sp...................]     Part B (4 times)
-------------------------------|-----------------|
-------------------------------|-----------------|
-------------------------------|-----------------|
-------------------------------|-----------------|
-3-2-0--3-2-0------------------|-----------------|
--------------2222...22222-2---|-3-2-3-0--0-0----|

Part C - [sp] throughout

---0-2-3-023-0-2-3-023-0-2-3-023-/7--------8--7-5--8--7-5----------------|
(0)-------------------------------------------------------7----------/19-|
-------------------------------------------------------------------------|
-------------------------------------------------------------------------|
-------------------------------------------------------------------------|
-------------------------------------------------------------------------|
Repeat Part B 4 times
Repeat Part A
Repeat Part B 2 times
Part D (2 times) [sp] throughout

-------------------------------------|
-------------------------------------|
-------------------------------------|
-------------------------------------|
-2---5---9---12---14-----------------|
-------------------------------------|
Part E  [sp] throughout
--------------------------|
--------------------------|
--------------------------|
--------------------------|
--------------------------|
-55-655-3---55-655-3---/7-|
Repeat Part B 4 times
During the organ interlude:
Palm mute the chords E5 |022xxx| then C5 |x355xx|,
then B5 |x244xx| while gradually lifting palm mute.
Repeat Part B 2 times
Repeat Part D 2 times
Part F
                  [sp]........
-55565-3--55565-3--7----------(quick slide up fretboard)----------------|
------------------------------------------------------------------------|
------------------------------------------------------------------------|
------------------------------------------------------------------------|
------------------------------------------------------------------------|
------------------------------------------------------------------------|

Repeat Part B 4 times
Repeat Part A once

(slowing down tempo)
-----------------0-----------------|
-----------------0-----------------|
-----------------1-----------------|
-----------------2-----------------|
-2-2-0-0---------2-----------------|
---------3-3-2-2-0-----------------|
Добавлено: 12.04.2016
Другие материалы по этой песне:
  • Аккорды и текст

Страница создана 12.04.2016
http://primanota.ru/man-or-astro-man-2/alpha-surfari-chords.htm
Привет, Гость.
Предлагаем пройти революционный курс по гитаре.
Подарок от PrimaNota.Ru, забирай!