PrimaNota.ru - самый крупный в мире бесплатный архив песенных текстов, аккордов, табулатур и нот


Man Man - Mister Jung Stuffed - таба, видео

Регистрация Запомнить меня
Войти через:  Facebook Google Twitter Vk Yandex Mail.ru

Man Man - Mister Jung Stuffed - таба, видео

Печатать
Просмотров: 97
-----------------------------------------------------------------------------
                             Mister Jung Stuffed – Man Man
-----------------------------------------------------------------------------
Tabbed by: Tyler Gjersee

Tuning: Standard

Fun song. These are the main parts. I would suggest getting some sweet
 synths or ring mod for the wacky noises throughout. If you have any
 corrections or additions, please comment.


Play one of these on 2 and 4 for the entire song except on the slides down.
e|-----7--------7---------2-------------------------------------------------|
B|-----7--------7---------3-------------------------------------------------|
G|-----7--------7---------4-------------------------------------------------|
D|--------------9---------4-------------------------------------------------|
A|--------------9---------2-------------------------------------------------|
E|--------------7-----------------------------------------------------------|


The fun lalala part
:13
e------------------------------------------------------------------------------------------------|
B|-----------------------------------------------------------------------------------------------|
G|-----------------------------------------------------------------------------------------------|
D|----9--7-9--7-9--7-9-7-9-7----------------------7----------------------------------------------|
A|---------------------------10--9-10--9-10--9-10---10-9-8--7-8--7-7--5-7-----5------------------|
E|------------------------------------------------------------------------------7--5-7--5-7--5-7-|


Here's the same thing an octave up
e|7--5-7--5-7--5-7-5-7-5------------------5-----------------------------------|
B|-----------------------8--7-8--7-8--7-8---8-7-6--5-6--5-5--3-5--3-----------|
G|------------------------------------------------------------------4--2-4-2-4|
D|----------------------------------------------------------------------------|
A|----------------------------------------------------------------------------|
E|----------------------------------------------------------------------------|

:54
Take me in your boat…
                                                                     3X
e|--------------------------------------------------------------------------|
B|--------------------------------------------------------------------------|
G|--14-13-12-11-------------------------------------------------------------|
D|--------------9-9---------------------------------------------------------|
A|--12-11-10-9--------------------------------------------------------------|
E|--------------7-7---------------------------------------------------------|

Then…
e|--------------------------------------------------------------------------|
B|--------------------------------------------------------------------------|
G|-10-9-8-------------------------------------------------------------------|
D|--------11-10-9-----------------------------------------------------------|
A|--8-7-6-------------------------------------------------------------------|
E|---------9-8--7-----------------------------------------------------------|

1:27
Tremolo Pick section : Kind of hard to hear. This isn't exact. Just use these notes as guide.
                                                                     2X
e|--------------------------------------------------------------------------|
B|--12--9--10--12--7--9—12///7----------------------------------------------|
G|--------------------------------------------------------------------------|
D|--------------------------------------------------------------------------|
A|--------------------------------------------------------------------------|
E|--------------------------------------------------------------------------|

End on a C
Been locked down way too long.
I've been locked down way too long.

Take me in your boat
To those fiery shores.
I don't want to love
Anymore.

Up she goes.
Down she goes.

Oh no, this man
Crawls into my skin.
When I'm this man
Don't never see the way.

I want to crawl
All up into your skin.
And on my own
Throw it to the way.

Take me in your arms
Out of harms way.
I don't want to love
Anymore.

Lay me on the shores
Of the fiery shores.
I don't want to love
Anymore.
Добавлено: 03.05.2012
Другие материалы по этой песне:
  • Аккорды и текст

Страница создана 03.05.2012
http://primanota.ru/man-man/mister-jung-stuffed-chords.htm
Привет, Гость.
Предлагаем пройти революционный курс по гитаре.
Подарок от PrimaNota.Ru, забирай!