PrimaNota.ru - самый крупный в мире бесплатный архив песенных текстов, аккордов, табулатур и нот


Man Man - Harpoon Fever - таба, видео

Регистрация Запомнить меня
Войти через:  Facebook Google Twitter Vk Yandex Mail.ru

Man Man - Harpoon Fever - таба, видео

Печатать
Просмотров: 69
-------------------------------------------------------------------------------
                             Harpoon Fever - Man Man
-------------------------------------------------------------------------------
Tabbed by: Kidsan
E-mail: kidsan_74@hotmail.co.uk

Tuning: Standard

My first ever tab, really simple, great song by an even greater band!

(Less crazy bit)
e|---------------------------------------------------------------------------|
B|-----------------------------5---------------------------------------------|
G|-7-7--4--7-7--4--7-7--4--7-7-----------------------------------------------|x8
D|---------------------------------------------------------------------------|
A|---------------------------------------------------------------------------|
E|---------------------------------------------------------------------------|

(Crazy bit)
e|---------------------------------------------------------------------------|
B|-10-10-10-10-8-------------------------------------------------------------|
G|---------------9-----------------------------------------------------------|x12
D|---------------------------------------------------------------------------|
A|---------------------------------------------------------------------------|
E|---------------------------------------------------------------------------|

(Fuck off, fuck off)
e|---------------------------------------------------------------------------|
B|-15-12--15-12--------------------------------------------------------------|
G|---------------------------------------------------------------------------|
D|---------------------------------------------------------------------------|
A|---------------------------------------------------------------------------|
E|---------------------------------------------------------------------------|

(Interlude)
e|---------------------------------------------------------------------------|
B|---------------------------------------------------------------------------|
G|--7-7-7-7--8-8-8-8--7-7-7-7--8---------------------------------------------|
D|--7-7-7-7--8-8-8-8--7-7-7-7--8---------------------------------------------|
A|--5-5-5-5--6-6-6-6--5-5-5-5--6---------------------------------------------|
E|---------------------------------------------------------------------------|
That's about it, like i said really simple stuff
Добавлено: 30.12.2015
Другие материалы по этой песне:
  • Аккорды и текст

Страница создана 30.12.2015
http://primanota.ru/man-man/harpoon-fever-chords.htm
Привет, Гость.
Предлагаем пройти революционный курс по гитаре.
Подарок от PrimaNota.Ru, забирай!