PrimaNota.ru - самый крупный в мире бесплатный архив песенных текстов, аккордов, табулатур и нот


Mammoth Grinder - Paragon Pusher - таба, видео

Регистрация Запомнить меня
Войти через:  Facebook Google Twitter Vk Yandex Mail.ru

Mammoth Grinder - Paragon Pusher - таба, видео

Печатать
Просмотров: 105
-------------------------------------------------------------------------------
                             Paragon Pusher - MAMMOTH GRINDER
-------------------------------------------------------------------------------
Tabbed by: Levi Ladewig
E-mail: leviladewig@yahoo.com

Tuning: B standard (B e a d f# b)

b|---------------------------------------------------------------------------|
F#---------------------------------------------------------------------------|
D|---------------------------------------------------------------------------|
A|-------------8-8-8-8-------------------------------------------------------|
E|-7-7-7-7-7-7---------6-6-6-6-7-7-7-7-6-6-6-6---------6-6-6-6---------------|
B|---------------------------------------------8-8-8-8-----------------------|

b|---------------------------------------------------------------------------|
F#---------------------------------------------------------------------------|
D|---------------------------------------------------------------------------|
A|-------------8-8-8-8--8--9--8----------------------------------------------|
E|-7-7-7-7-7-7----------6--7--6--10--9---------------------------------------|
B|-------------------------------8---7---------------------------------------|

b|---------------------------------------------------------------------------|
F#---------------------------------------------------------------------------|
D|---------------------------------------------------------------------------|
A|-------------8-8-8-8-8-8-8-8-9-9-9-9-8-8-8-8-------------8-8-8-8-----------|
E|-7-7-7-7-7-7---------6-6-6-6-7-7-7-7-6-6-6-6-10-10-10-10-6-6-6-6-----------|
B|---------------------------------------------8--8--8--8--------------------|

b|---------------------------------------------------------------------------|
F#---------------------------------------------------------------------------|
D|---------------------------------------------------------------------------|
A|-------------8-8-8-8-8-8-8-8-9-9-9-9-8-8-8-8-------------------------------|
E|-7-7-7-7-7-7---------6-6-6-6-7-7-7-7-6-6-6-6-10-10-10-10-9-9-9-9-----------|
B|---------------------------------------------8--8--8--8--7-7-7-7-----------|

b|---------------------------------------------------------------------------|
F#---------------------------------------------------------------------------|
D|---------------------------------------------------------------------------|
A|-------------8-8-8-8-8-8-8-8-9-9-9-9-8-8-8-8-------------8-8-8-8-----------|
E|-7-7-7-7-7-7---------6-6-6-6-7-7-7-7-6-6-6-6-10-10-10-10-6-6-6-6-----------|
B|---------------------------------------------8--8--8--8--------------------|

b|---------------------------------------------------------------------------|
F#---------------------------------------------------------------------------|
D|---------------------------------------------------------------------------|
A|-------------8-8-8-8-8-8-8-8-9-9-9-9-8-8-8-8-------------------------------|
E|-7-7-7-7-7-7---------6-6-6-6-7-7-7-7-6-6-6-6-10-10-10-10-9-9-9-9-----------|
B|---------------------------------------------8--8--8--8--7-7-7-7-----------|

b|---------------------------------------------------------------------------|
F#---------------------------------------------------------------------------|
D|---------------------------------------------------------------------------|
A|---------------------------------------------------------------------------|
E|-6--6-6-6-6-6-6--6---4---6---3---------------------------------------------|
B|-4--4-4-4-4-4-4--4---2---4---1---------------------------------------------|

b|---------------------------------------------------------------------------|
F#---------------------------------------------------------------------------|
D|---------------------------------------------------------------------------|
A|-------------8-8-8-8-8-8-8-8-9-9-9-9-8-8-8-8-------------8-8-8-8-----------|
E|-7-7-7-7-7-7---------6-6-6-6-7-7-7-7-6-6-6-6-10-10-10-10-6-6-6-6-----------|
B|---------------------------------------------8--8--8--8--------------------|

b|---------------------------------------------------------------------------|
F#---------------------------------------------------------------------------|
D|---------------------------------------------------------------------------|
A|-------------8-8-8-8-8-8-8-8-9-9-9-9-8-8-8-8-------------------------------|
E|-7-7-7-7-7-7---------6-6-6-6-7-7-7-7-6-6-6-6-10-10-10-10-9-9-9-9-----------|
B|---------------------------------------------8--8--8--8--7-7-7-7-----------|

b|---------------------------------------------------------------------------|
F#---------------------------------------------------------------------------|
D|---------------------------------------------------------------------------|
A|-------------8-8-8-8-8-8-8-8-9-9-9-9-8-8-8-8-------------8-8-8-8-----------|
E|-7-7-7-7-7-7---------6-6-6-6-7-7-7-7-6-6-6-6-10-10-10-10-6-6-6-6-----------|
B|---------------------------------------------8--8--8--8--------------------|

b|---------------------------------------------------------------------------|
F#---------------------------------------------------------------------------|
D|---------------------------------------------------------------------------|
A|-------------8-8-8-8-8-8-8-8-9-9-9-9-8-8-8-8-------------------------------|
E|-7-7-7-7-7-7---------6-6-6-6-7-7-7-7-6-6-6-6-10-10-10-10-9-9-9-9-----------|
B|---------------------------------------------8--8--8--8--7-7-7-7-----------|

b|---------------------------------------------------------------------------|
F#---------------------------------------------------------------------------|
D|---------------------------------------------------------------------------|
A|---------------------------------------------------------------------------|
E|-6--6-6-6-6-6-6--6---4---6---3---------------------------------------------|
B|-4--4-4-4-4-4-4--4---2---4---1---------------------------------------------|

b|---------------------------------------------------------------------------|
F#---------------------------------------------------------------------------|
D|---------------------------------------------------------------------------|
A|---------------------------------------------------------------------------|
E|-2--------------7---7---7--------------------------------------------------|
B|-0--0-0-0-0-0-6---6---6---6-7-6--------------------------------------------|

b|---------------------------------------------------------------------------|
F#---------------------------------------------------------------------------|
D|---------------------------------------------------------------------------|
A|---------------------------------------------------------------------------|
E|-2--------------7---7---7--------------------------------------------------|
B|-0--0-0-0-0-0-6---6---6---6-7-6--------------------------------------------|

b|---------------------------------------------------------------------------|
F#---------------------------------------------------------------------------|
D|---------------------------------------------------------------------------|
A|---------------------------------------------------------------------------|
E|-2--------------7---7---7--------------------------------------------------|
B|-0--0-0-0-0-0-6---6---6---6-7-6--------------------------------------------|

b|---------------------------------------------------------------------------|
F#---------------------------------------------------------------------------|
D|---------------------------------------------------------------------------|
A|---------------------------------------------------------------------------|
E|-2--------------7---7---7--------------------------------------------------|
B|-0--0-0-0-0-0-6---6---6---6-7-6--------------------------------------------|

b|---------------------------------------------------------------------------|
F#---------------------------------------------------------------------------|
D|---------------------------------------------------------------------------|
A|---------------------------------------------------------------------------|
E|-6--6-6-6-6-6-6--6---4---6---3---------------------------------------------|
B|-4--4-4-4-4-4-4--4---2---4---1---------------------------------------------|

b|---------------------------------------------------------------------------|
F#---------------------------------------------------------------------------|
D|---------------------------------------------------------------------------|
A|-------------8-8-8-8-------------------------------------------------------|
E|-7-7-7-7-7-7---------6-6-6-6-7-7-7-7-6-6-6-6---------6-6-6-6---------------|
B|---------------------------------------------8-8-8-8-----------------------|

b|---------------------------------------------------------------------------|
F#---------------------------------------------------------------------------|
D|---------------------------------------------------------------------------|
A|-------------8-8-8-8--8--9--8----------------------------------------------|
E|-7-7-7-7-7-7----------6--7--6--10--9---------------------------------------|
B|-------------------------------8---7---------------------------------------|

b|---------------------------------------------------------------------------|
F#---------------------------------------------------------------------------|
D|---------------------------------------------------------------------------|
A|-------------8-8-8-8-8-8-8-8-9-9-9-9-8-8-8-8-------------8-8-8-8-----------|
E|-7-7-7-7-7-7---------6-6-6-6-7-7-7-7-6-6-6-6-10-10-10-10-6-6-6-6-----------|
B|---------------------------------------------8--8--8--8--------------------|

b|---------------------------------------------------------------------------|
F#---------------------------------------------------------------------------|
D|---------------------------------------------------------------------------|
A|-------------8-8-8-8-8-8-8-8-9-9-9-9-8-8-8-8-------------------------------|
E|-7-7-7-7-7-7---------6-6-6-6-7-7-7-7-6-6-6-6-10-10-10-10-9-9-9-9-----------|
B|---------------------------------------------8--8--8--8--7-7-7-7-----------|


b|---------------------------------------------------------------------------|
F#---------------------------------------------------------------------------|
D|---------------------------------------------------------------------------|
A|---------------------------------------------------------------------------|
E|-6--6-6-6-6-6-6--6---4---6---3---------------------------------------------|
B|-4--4-4-4-4-4-4--4---2---4---1---------------------------------------------|

b|---------------------------------------------------------------------------|
F#---------------------------------------------------------------------------|
D|---------------------------------------------------------------------------|
A|-------------8-8-8-8---------9-9-9-9-8-8-8-8-------------8-8-8-8-----------|
E|-7-7-7-7-7-7---------7-7-7-7-----------------10-10-10-10-------------------|
B|---------------------------------------------------------------------------|

b|---------------------------------------------------------------------------|
F#---------------------------------------------------------------------------|
D|---------------------------------------------------------------------------|
A|---------------------------------------------------------------------------|
E|-6--6-6-6-6-6-6--6---4---6---3---------------------------------------------|
B|-4--4-4-4-4-4-4--4---2---4---1---------------------------------------------|

b|---------------------------------------------------------------------------|
F#---------------------------------------------------------------------------|
D|---------------------------------------------7-7-7-7-6-6-6-6---------------|
A|-------------8-8-8-8---------9-9-9-9-8-8-8-8-------------------------------|
E|-7-7-7-7-7-7---------7-7-7-7-----------------------------------------------|
B|---------------------------------------------------------------------------|

b|---------------------------------------------------------------------------|
F#---------------------------------------------------------------------------|
D|---------------------------------------------------------------------------|
A|---------------------------------------------------------------------------|
E|-6--6-6-6-6-6-6--6---4---6---3---------------------------------------------|
B|-4--4-4-4-4-4-4--4---2---4---1---------------------------------------------|

b|---------------------------------------------------------------------------|
F#---------------------------------------------------------------------------|
D|---------------------------------------------------------------------------|
A|---------------------------------------------------------------------------|
E|-2--------------7---7---7--------------------------------------------------|
B|-0--0-0-0-0-0-6---6---6---6-7\---------------------------------------------|

b|---------------------------------------------------------------------------|
F#---------------------------------------------------------------------------|
D|---------------------------------------------------------------------------|
A|---------------------------------------------------------------------------|
E|-2--2-2-2-2-2---7---7---7--------------------------------------------------|
B|-0--0-0-0-0-0-6---6---6---6-7-6--------------------------------------------|

b|---------------------------------------------------------------------------|
F#---------------------------------------------------------------------------|
D|---------------------------------------------------------------------------|
A|---------------------------------------------------------------------------|
E|-2--2-2-2-2-2---7---7---7--------------------------------------------------|
B|-0--0-0-0-0-0-6---6---6---6-7-6--------------------------------------------|

b|---------------------------------------------------------------------------|
F#---------------------------------------------------------------------------|
D|---------------------------------------------------------------------------|
A|---------------------------------------------------------------------------|
E|-2--2-2-2-2-2---7---7---7--------------------------------------------------|
B|-0--0-0-0-0-0-6---6---6---6-7-6--------------------------------------------|

b|---------------------------------------------------------------------------|
F#---------------------------------------------------------------------------|
D|---------------------------------------------------------------------------|
A|---------------------------------------------------------------------------|
E|-2--2-2-2-2-2---7---7---7--------------------------------------------------|
B|-0--0-0-0-0-0-6---6---6---6-7-6--------------------------------------------|

b|---------------------------------------------------------------------------|
F#---------------------------------------------------------------------------|
D|---------------------------------------------------------------------------|
A|-----------------7---------------------------------------------------------|
E|-----6-----9-0-6-----6---8-------------------------------------------------|
B|-0-5---0-8---------0---0---0-7-6-------------------------------------------|

b|---------------------------------------------------------------------------|
F#---------------------------------------------------------------------------|
D|---------------------------------------------------------------------------|
A|---------------------------------------------------------------------------|
E|-2--2-2-2-2-2---7---7---7--------------------------------------------------|
B|-0--0-0-0-0-0-6---6---6---6-7-6--------------------------------------------|

b|---------------------------------------------------------------------------|
F#---------------------------------------------------------------------------|
D|---------------------------------------------------------------------------|
A|---------------------------------------------------------------------------|
E|-2--2-2-2-2-2---7---7---7--------------------------------------------------|
B|-0--0-0-0-0-0-6---6---6---6-7-6--------------------------------------------|

b|---------------------------------------------------------------------------|
F#---------------------------------------------------------------------------|
D|---------------------------------------------------------------------------|
A|---------------------------------------------------------------------------|
E|-2--2-2-2-2-2---7---7---7--------------------------------------------------|
B|-0--0-0-0-0-0-6---6---6---6-7-6--------------------------------------------|

b|---------------------------------------------------------------------------|
F#---------------------------------------------------------------------------|
D|---------------------------------------------------------------------------|
A|---------------------------------------------------------------------------|
E|-2--2-2-2-2-2---7---7---7--------------------------------------------------|
B|-0--0-0-0-0-0-6---6---6---6-7-6--------------------------------------------|

b|---------------------------------------------------------------------------|
F#---------------------------------------------------------------------------|
D|---------------------------------------------------------------------------|
A|-----------------7---------------------------------------------------------|
E|-----6-----9-0-6-----6---8--------2----------------------------------------|
B|-0-5---0-8---------0---0---0-7-6--0----------------------------------------|


************************************

| /   slide up
| \   slide down
| h   hammer-on
| p   pull-off
| ~   vibrato
| +   harmonic
| x   Mute note
| b   Bend
| pb  Pre-bend
| br  Bend release
| pbr Pre-bend release
| brb Bend release bend

************************************
Добавлено: 01.03.2016
Вам также может быть интересно:
Другие материалы по этой песне:
  • Аккорды и текст

Страница создана 01.03.2016
http://primanota.ru/mammoth-grinder/paragon-pusher-chords.htm
Привет, Гость.
Предлагаем пройти революционный курс по гитаре.
Подарок от PrimaNota.Ru, забирай!