PrimaNota.ru - самый крупный в мире бесплатный архив песенных текстов, аккордов, табулатур и нот


Mammoth Grinder - Cosmic Crypt - таба, видео

Регистрация Запомнить меня
Войти через:  Facebook Google Twitter Vk Yandex Mail.ru

Mammoth Grinder - Cosmic Crypt - таба, видео

Печатать
Просмотров: 79
-------------------------------------------------------------------------------
                             Cosmic Crypt - MAMMOTH GRINDER
-------------------------------------------------------------------------------
Tabbed by:
E-mail:

Tuning:
           opening played with really fast chorus effect
b|--18~~~~~------------------------------------------------------------------|
F#---------------------------------------------------------------------------|
D|---------------------------------------------------------------------------|
A|---------------------------------------------------------------------------|
E|---------------------------------------------------------------------------|
B|---------------------------------------------------------------------------|

b|----------------------------------------------------------------------|
F#----------------------------------------------------------------------|
D|----------------------------------------------------------------------|
A|-------------2-3-2-3-2-3-2-3-------5-6-5-6-5-6-5-6--------------------|
E|-----2--2--2------------------2--2-----------------2--2---7--6--7--8--|
B|-12/-0--0--0------------------0--0-----------------0--0---5--4--5--6--|

b|---------------------------------------------|
F#---------------------------------------------|
D|----------9--8-------------------------------|
A|----------7--6-------10--9-------------------|
E|-2---2--2------2--2--8---7--2--2---6----5----|
B|-0---0--0------0--0---------0--0---4----3----|

b|------------------------------------------------------------------|
F#------------------------------------------------------------------|
D|------------------------------------------------------------------|
A|---------2-3-2-3-2-3-2-3-------5-6-5-6-5-6-5-6--------------------|
E|-2--2--2------------------2--2-----------------2--2---7--6--7--8--|
B|-0--0--0------------------0--0-----------------0--0---5--4--5--6--|

b|---------------------------------------------|
F#---------------------------------------------|
D|----------9--8-------------------------------|
A|----------7--6-------10--9-------------------|
E|-2---2--2------2--2--8---7--2--2---6----5----|
B|-0---0--0------0--0---------0--0---4----3----|

b|------------------------------------------------|
F#------------------------------------------------|
D|------------------------------------------------|
A|------------------------------------------------|
E|-2---2--2--2--2--2--2--2--2--2--2---7--6--7--8--|
B|-0---0--0--0--0--0--0--0--0--0--0---5--4--5--6--|

b|---------------------------------------------|
F#---------------------------------------------|
D|---------------------------------------------|
A|---------------------------------------------|
E|-2---2--2--2--2--2--2--2--2--2--2---6----5---|
B|-0---0--0--0--0--0--0--0--0--0--0---4----3---|

b|------------------------------------------------|
F#------------------------------------------------|
D|------------------------------------------------|
A|------------------------------------------------|
E|-2---2--2--2--2--2--2--2--2--2--2---7--6--7--8--|
B|-0---0--0--0--0--0--0--0--0--0--0---5--4--5--6--|

b|---------------------------------------------|
F#---------------------------------------------|
D|---------------------------------------------|
A|---------------------------------------------|
E|-2---2--2--2--2--2--2--2--2--2--2---6----5---|
B|-0---0--0--0--0--0--0--0--0--0--0---4----3---|

b|--------------------------------------------------------------------|
F#--------------------------------------------------------------------|
D|--------------------------------------------------------------------|
A|----------------------------------------------5-x-x-5-6-5-x-x-------|
E|-4--4--4--4--4--4--4--4--4--4--4--4--4--4--4--3-x-x-3-4-3-x-x-6--5--|
B|-2--2--2--2--2--2--2--2--2--2--2--2--2--2--2----x-x-------x-x-4--3--|

b|--------------------------------------------------------------------|
F#--------------------------------------------------------------------|
D|--------------------------------------------------------------------|
A|----------------------------------------------5-x-x-------x-x-------|
E|-4--4--4--4--4--4--4--4--4--4--4--4--4--4--4--3-x-x-5-6-5-x-x-5--8--|
B|-2--2--2--2--2--2--2--2--2--2--2--2--2--2--2----x-x-3-4-3-x-x-3--6--|

b|--------------------------------------------------------------------|
F#--------------------------------------------------------------------|
D|--------------------------------------------------------------------|
A|----------------------------------------------5-x-x-5-6-5-x-x-------|
E|-4--4--4--4--4--4--4--4--4--4--4--4--4--4--4--3-x-x-3-4-3-x-x-6--5--|
B|-2--2--2--2--2--2--2--2--2--2--2--2--2--2--2----x-x-------x-x-4--3--|

b|--------------------------------------------------------------------|
F#--------------------------------------------------------------------|
D|--------------------------------------------------------------------|
A|----------------------------------------------5-x-x-------x-x-------|
E|-4--4--4--4--4--4--4--4--4--4--4--4--4--4--4--3-x-x-5-6-5-x-x-5--8--|
B|-2--2--2--2--2--2--2--2--2--2--2--2--2--2--2----x-x-3-4-3-x-x-3--6--|

b|------------------------------------------------|
F#------------------------------------------------|
D|------------------------------------------------|
A|------------------------------------------------|
E|-2---2--2--2--2--2--2--2--2--2--2---7--6--7--8--|
B|-0---0--0--0--0--0--0--0--0--0--0---5--4--5--6--|

b|---------------------------------------------|
F#---------------------------------------------|
D|---------------------------------------------|
A|---------------------------------------------|
E|-2---2--2--2--2--2--2--2--2--2--2---6----5---|
B|-0---0--0--0--0--0--0--0--0--0--0---4----3---|

b|------------------------------------------------|
F#------------------------------------------------|
D|------------------------------------------------|
A|------------------------------------------------|
E|-2---2--2--2--2--2--2--2--2--2--2---7--6--7--8--|
B|-0---0--0--0--0--0--0--0--0--0--0---5--4--5--6--|

b|---------------------------------------------|
F#---------------------------------------------|
D|---------------------------------------------|
A|---------------------------------------------|
E|-2---2--2--2--2--2--2--2--2--2--2---6----5---|
B|-0---0--0--0--0--0--0--0--0--0--0---4----3---|

b|----------------------------------------------------------------------|
F#----------------------------------------------------------------------|
D|----------------------------------------------------------------------|
A|-------------2-3-2-3-2-3-2-3-------5-6-5-6-5-6-5-6--------------------|
E|-----2--2--2------------------2--2-----------------2--2---7--6--7--8--|
B|-12/-0--0--0------------------0--0-----------------0--0---5--4--5--6--|

b|---------------------------------------------|
F#---------------------------------------------|
D|----------9--8-------------------------------|
A|----------7--6-------10--9-------------------|
E|-2---2--2------2--2--8---7--2--2---6----5----|
B|-0---0--0------0--0---------0--0---4----3----|

b|------------------------------------------------------------------|
F#------------------------------------------------------------------|
D|------------------------------------------------------------------|
A|---------2-3-2-3-2-3-2-3-------5-6-5-6-5-6-5-6--------------------|
E|-2--2--2------------------2--2-----------------2--2---7--6--7--8--|
B|-0--0--0------------------0--0-----------------0--0---5--4--5--6--|

b|---------------------------------------------|
F#---------------------------------------------|
D|----------9--8-------------------------------|
A|----------7--6-------10--9-------------------|
E|-2---2--2------2--2--8---7--2--2---6----5----|
B|-0---0--0------0--0---------0--0---4----3----|

Haven't quite figured out the lead yet, but this is what I got so far.
Not sure what is being played as rhythm guitar under it either...
b|-----------------------------12-12-12-12-12-------------------------------------------|
F#---------------------11-11-11--------------12-12-12-12-11-11-11--------------11-11-11-|
D|/9-9-9-9-9-9-12-12-12------------------------------------------9-9-9-12-12-12---------|
A|--------------------------------------------------------------------------------------|
E|--------------------------------------------------------------------------------------|
B|--------------------------------------------------------------------------------------|

b|---------------------------------------------------|
F#---------------------------------------------------|
D|-9-9-9-9-9-9-12-12-12------------------------------|
A|---------------------11-11-11-8-8-8----------------|
E|-----------------------------------10-10-10-7-7-7--|
B|---------------------------------------------------|

b|--------------------------------------------------------------------|
F#--------------------------------------------------------------------|
D|--------------------------------------------------------------------|
A|----------------------------------------------5-x-x-5-6-5-x-x-------|
E|-4--4--4--4--4--4--4--4--4--4--4--4--4--4--4--3-x-x-3-4-3-x-x-6--5--|
B|-2--2--2--2--2--2--2--2--2--2--2--2--2--2--2----x-x-------x-x-4--3--|

b|--------------------------------------------------------------------|
F#--------------------------------------------------------------------|
D|--------------------------------------------------------------------|
A|----------------------------------------------5-x-x-------x-x-------|
E|-4--4--4--4--4--4--4--4--4--4--4--4--4--4--4--3-x-x-5-6-5-x-x-5--8--|
B|-2--2--2--2--2--2--2--2--2--2--2--2--2--2--2----x-x-3-4-3-x-x-3--6--|

b|--------------------------------------------------------------------|
F#--------------------------------------------------------------------|
D|--------------------------------------------------------------------|
A|----------------------------------------------5-x-x-5-6-5-x-x-------|
E|-4--4--4--4--4--4--4--4--4--4--4--4--4--4--4--3-x-x-3-4-3-x-x-6--5--|
B|-2--2--2--2--2--2--2--2--2--2--2--2--2--2--2----x-x-------x-x-4--3--|

b|--------------------------------------------------------------------|
F#--------------------------------------------------------------------|
D|--------------------------------------------------------------------|
A|----------------------------------------------5-x-x-------x-x-------|
E|-4--4--4--4--4--4--4--4--4--4--4--4--4--4--4--3-x-x-5-6-5-x-x-5--8--|
B|-2--2--2--2--2--2--2--2--2--2--2--2--2--2--2----x-x-3-4-3-x-x-3--6--|

b|-(3)----------------------------------------------------------------|
F#-(3)----------------------------------------------------------------|
D|-(3)----------------------------------------------------------------|
A|-(3)----------------------------------------------------------------|
E|-(3)-------------------2--------------------------------------------|
B|-----------------------0--------------------------------------------|


************************************

| /   slide up
| \   slide down
| h   hammer-on
| p   pull-off
| ~   vibrato
| +   harmonic
| x   Mute note
| b   Bend
| pb  Pre-bend
| br  Bend release
| pbr Pre-bend release
| brb Bend release bend

************************************
Добавлено: 01.03.2016
Вам также может быть интересно:
Другие материалы по этой песне:
  • Аккорды и текст

Страница создана 01.03.2016
http://primanota.ru/mammoth-grinder/cosmic-crypt-chords.htm
Привет, Гость.
Предлагаем пройти революционный курс по гитаре.
Подарок от PrimaNota.Ru, забирай!