PrimaNota.ru - самый крупный в мире бесплатный архив песенных текстов, аккордов, табулатур и нот


Mamas & The Papas - My Girl - текст песни, бас-таба, видео

Регистрация Запомнить меня
Войти через:  Facebook Google Twitter Vk Yandex Mail.ru

Mamas & The Papas - My Girl - текст песни, бас-таба, видео

Печатать
Просмотров: 198
Авторы музыки: Ronald White, Smokey Robinson
Авторы текста: Smokey Robinson
Tabbed by: 6METAL6BASSIST6
E-mail: petergriffinav@gmail.com

Tuning: EADG

G|----------------------------------------------------------------|
D|3---------------3---------------3---------------3---------------| x2
A|----1---1-----------1---1-----------1---1-----------1---1-------|
E|----------------------------------------------------------------|

G|----------------------------------------------------------------|
D|3-----------------------------------1-----------1---1-----------|
A|----1-----------1---1-----------1-------------------------------|
E|----------------------------------------------------------------|

G|----------------------------------------------------------------|
D|1-----------------------------------1-----------1---1-----------|
A|----1-----------1---1-----------1-------------------------------|
E|----------------------------------------------------------------|

G|----------------------------------------------------------------|
D|1-----------------------------------3-----------3---3-------1---|
A|----3-----------3---3-----------3-------------------------------|
E|----------------------------------------------------------------|

G|--------------------------------------------------------------------|
D|------------------------------------5---5---5-----------------------|
A|----5-----------5---5-----------5-----------------------------------|
E|--------------------------------------------------------------------|

0:29

G|----------------------------------------------------------------|
D|--------------------------------3-----------3---3-----------5---| x4
A|3-----------3---3-----------3-----------------------------------|
E|----------------------------------------------------------------|

G|----------------------------------------------------------------|
D|--------------------------------3-----------3---5-----------5---| x2
A|3-----------3---5-----------5-----------------------------------|
E|----------------------------------------------------------------|

G|----------------------------------------------------------------|
D|----------------------------5---------------------------5-------|
A|3-----------3---3---------------3-----------3---3-----------3---|
E|----------------------------------------------------------------|

G|----------------------------------------------------------------|
D|------------------------------------5---------------------------|
A|5-----------5---5---------------5-------------------------------|
E|----------------------------------------------------------------|

1:04

G|----------------------------------------------------------------|
D|--------------------------------3-----------3---3-----------5---| x4
A|3-----------3---3-----------3-----------------------------------|
E|----------------------------------------------------------------|

G|----------------------------------------------------------------|
D|--------------------------------3-----------3---5-----------5---| x2
A|3-----------3---5-----------5-----------------------------------|
E|----------------------------------------------------------------|

G|----------------------------------------------------------------|
D|----------------------------5-----------------------5-----------|
A|3-----------3---3---------------3-----------3---3-------3---4---|
E|----------------------------------------------------------------|

G|----------------------------------------------------------------|
D|------------------------------------5---------------------------|
A|5-----------5---5---------------5-------------------------------|
E|----------------------------------------------------------------|

1:40

G|----------------------------------------------------------------|
D|------------5---------------5---------------5---------------5---| x4
A|3---3-----------3---3-----------3---3-----------3---3-----------|
E|----------------------------------------------------------------|

G|----------------------------------------------------------------|
D|--------------------------------3-----------3---3-----------5---|
A|3-----------3---3-----------3-----------------------------------|
E|----------------------------------------------------------------|

G|----------------------------------------------------------------|
D|--------------------------------3-----------3---3-----------3---|
A|3-----------3---3-----------3-----------------------------------|
E|----------------------------------------------------------------|

G|----------------------------------------------------------------|
D|--------------------------------5-----------5---5-------3-------|
A|5-----------5---5-----------5-----------------------------------|
E|----------------------------------------------------------------|

G|----------------------------------------------------------------|
D|--------------------------------7---7---7-----------------------|
A|7-----------7---7-----------7-----------------------------------|
E|----------------------------------------------------------------|

2:15

G|----------------------------------------------------------------|
D|--------------------------------5-----------5---5-------5---7---| x4
A|5-----------5---5-----------5-----------------------5-----------|
E|----------------------------------------------------------------|

G|----------------------------------------------------------------|
D|--------------------------------5-----------5---5-----------5---| x2
A|5-----------5---7-----------7-----------------------------------|
E|----------------------------------------------------------------|

G|----------------------------------------------------------------|
D|----------------------------7-----------------------------------|
A|5-----------5---5---------------5-----------5---5-----------5---|
E|----------------------------------------------------------------|

G|----------------------------------------------------------------|
D|--------------------------------7---7---7-----------------------|
A|7-----------7---7-----------7-----------------------------------|
E|----------------------------------------------------------------|

2:50

G|----------------------------------------------------------------|
D|7-----------------------------------5-----------5---5-----------| x3
A|----5-----------5---5-----------5-------------------------------|
E|----------------------------------------------------------------|

G|----------------------------------------------------------------|
D|7-----------------------------------5-----------5---5-------5---| x3
A|----5-----------5---5-----------5-----------------------5-------|
E|----------------------------------------------------------------|

As it fades out.

G|----------------------------------------------------------------|
D|7---------------------------7-------5-------5-----5-5-------5---|
A|----5-------5-----5-5---5-------5-----------------------5-------|
E|----------------------------------------------------------------|

G|----------------------------------------|
D|7---------------------------7-------5---|
A|----5-------5-----5-5---5-------5-------|
E|----------------------------------------|
Добавлено: 17.05.2015
Другие материалы по этой песне:
  • Аккорды и текст

Страница создана 17.03.2012
http://primanota.ru/mamas-and-the-papas/my-girl-chords.htm
Привет, Гость.
Предлагаем пройти революционный курс по гитаре.
Подарок от PrimaNota.Ru, забирай!