PrimaNota.ru - самый крупный в мире бесплатный архив песенных текстов, аккордов, табулатур и нот


Mamas & The Papas - Californa Dreaming - таба, видео

Регистрация Запомнить меня
Войти через:  Facebook Google Twitter Vk Yandex Mail.ru

Mamas & The Papas - Californa Dreaming - таба, видео

Печатать
Просмотров: 195
-------------------------------------------------------------------------------
                             SONG NAME - Band Name
-------------------------------------------------------------------------------
Tabbed by: Hiram Barr
E-mail:

This is basically it. The timing is kind of weird because a few of 
the notes are triplets instead of quarter notes. But just play along with the song 
to figure out the rhythm. The notes are all right though. 

Tuning: Standard

e|---------------------------------------------2-0----0----------------------|
B|-------------------------------------------------3--0----------------------|
G|---------------------3--3-2-0-2-------0-2-0--2-0----2----------------------|
D|---2-4----7-5-4----2-4-----------4----2-4-2------4--4----------------------|
A|-2-----2---------2------2-----------2------2-2------2----------------------|
E|---------------------------------------------------------------------------| 


************************************

| /   slide up
| \   slide down
| h   hammer-on
| p   pull-off
| ~   vibrato
| +   harmonic
| x   Mute note
| b   Bend
| pb  Pre-bend
| br  Bend release
| pbr Pre-bend release
| brb Bend release bend

************************************
Добавлено: 28.09.2015
Другие материалы по этой песне:
  • Аккорды и текст

Страница создана 28.09.2015
http://primanota.ru/mamas-and-the-papas/californa-dreaming-chords.htm
Привет, Гость.
Предлагаем пройти революционный курс по гитаре.
Подарок от PrimaNota.Ru, забирай!