PrimaNota.ru - самый крупный в мире бесплатный архив песенных текстов, аккордов, табулатур и нот


Mama Ladilla - Acoso Sexual - таба, видео

Регистрация Запомнить меня
Войти через:  Facebook Google Twitter Vk Yandex Mail.ru

Mama Ladilla - Acoso Sexual - таба, видео

Печатать
Просмотров: 138
Acoso Sexual
_______________________________________________________________________
Mama Ladilla
 
"POWER DE MI"

Transcribed by Iñaki inakilar@hotmail.com

Intro:
         Guitarra 1
e|-----------------------------------------------------------------------------
B|-----------------------------------------------------------------------------
G|---9-x-9-x-9-x-9-x-9-9-9-----------------------------------------------------
D|-------------------------9-x-9-x-9-x-9-x-9-9-9-------------------------------
A|-----------------------------------------------------------------------------
E|-----------------------------------------------------------------------------
|
 |
 |       Guitarra 2
e|-----------------------------------------------------------------------------
B|--5-0-7-0-8-0-9-0-10-0-11-0-12-----------------------------------------------
G|-----------------------------------------------------------------------------
D|-----------------------------------------------------------------------------
A|-----------------------------------------------------------------------------
E|-----------------------------------------------------------------------------
Mis ojos conocen bien...
Riff B
e|-----------------------------------------------------------------------------
B|-----------------------------------------------------------------------------
G|--5---------4--------------4-------------------------------------------------
D|--5----3----4----5----4----4-------------------------------------------------
A|--3----3----2----5----4----2-------------------------------------------------
E|-------1---------3----2------------------------------------------------------
Riff D
e|-----------------------------------------------------------------------------
B|-----------------------------------------------------------------------------
G|-----------------------------------------------------------------------------
D|--7--6--5--4--3--2---7--6--5--4--3-------------------------------------------
A|--7--6--5--4--3--2---7--6--5--4--3-------------------------------------------
E|--5--4--3--2--1--0---5--4--3--2--1-------------------------------------------

Riff A
e|-----------------------------------------------------------------------------
B|-----------------------------------------------------------------------------
G|-----------------------------------------------------------------------------
D|--2-----4-----5-----6-----7-----8-----8/9--8/9--8/9--8/9--8/9-8/9------------
A|--2-----4-----5-----6-----7-----8-----8/9--8/9--8/9--8/9--8/9-8/9------------
E|--0--0--2--0--3--0--4--0--5--0--6--0--6/7--6/7--6/7--6/7--6/7-6/7------------
       *     *     *     *     *     *
E trabajo consiste en....

Riff B (A veces escupo pelos...)

Riff E
e|--------12--12-------------12--12--------12--12---11--11--10--9--------------
B|--12----13--13----12--12---13--13---12---13--13---12--12--11--10-------------
G|--12----12--12----12--12---12--12---12---12--12---11--11--10--9--------------
D|--12--------------12--12------------12---------------------------------------
A|-----------------------------------------------------------------------------
E|-----------------------------------------------------------------------------

Riff C
 
e|----------------------------------------------------------------------------|
B|----------------------------------------------------------------------------|
G|--2---------5----4-----4-----4-----4----------------------------------------|
D|--2----5----5----4-----4-----4-----4----------------------------------------|
A|--0----5----3----2--2--2--2--2--2--2----------------------------------------|
E|-------3--------------------------------------------------------------------|
                      *     *     *
Y a mi me no me gusta la polla de mi jefe .....

Riff F
    Guitarra 1
e|----------------------------------------------------------------------------|
B|----------------------------------------------------------------------------|
G|----9-9-9-9--9--9--9--9---9-9-9-9--9--9-------------------------------------|
D|----9-9-9-9--10-10-10-10--9-9-9-9--10-10------------------------------------|
A|----------------------------------------------------------------------------|
E|----------------------------------------------------------------------------|
   x2
 |
 |  Guitarra 2
e|----------------------------------------------------------------------------|
B|----------------------------------------------------------------------------|
G|--12--10-----------------------------12--10---------------------------------|
D|-----------12---9---12---9--12---9----------12---9---12---9-----------------|
A|----------------------------------------------------------------------------|
E|----------------------------------------------------------------------------|
   x2

Riff A (Desayuno meriendo y ceno...)x3
Riff B (Sabe a mi propia mierda....)
Riff D
Riff A (Conozco mejor que su mujer...)x3
Riff B (Sabe a mi propia mierda....)
Riff E
Riff C ( Y a mi me da arcadas....)
Riff F
Acompañamiento solo:  E F F# G G# A A# B   Al final acaba igual que el
riff A

e|----------------------------------------------------------------------------|
B|----9-----------------------------------------------------------------------|
G|----9-----------------------------------------------------------------------|
D|----7-------------------8/9--8/9--8/9--8/9--8/9-----------------------------|
A|------------------------8/9--8/9--8/9--8/9--8/9-----------------------------|
E|------------------------6/7--6/7--6/7--6/7--6/7-----------------------------|
x2
 |
 |
e|----------------------------------------------------------------------------|
B|----10-9--10-9--10-9--------------------------------------------------------|
G|----9--9--9--9--9--9--------------------------------------------------------|
D|------------------------8/9--8/9--8/9--8/9--8/9-----------------------------|
A|------------------------8/9--8/9--8/9--8/9--8/9-----------------------------|
E|------------------------6/7--6/7--6/7--6/7--6/7-----------------------------|
x2
 
      Guitarra 1
e|---4------------------------------------------------------------------------|
B|------1--2--3--4--5---------------------------------------------------------|
G|----------------------------------------------------------------------------|
D|-----------------------8/9--8/9--8/9--8/9--8/9--8/9-------------------------|
A|-----------------------8/9--8/9--8/9--8/9--8/9--8/9-------------------------|
E|-----------------------6/7--6/7--6/7--6/7--6/7--6/7-------------------------|
 |
 |   Guitarra 2
e|----------------------------------------------------------------------------|
B|---9------------------------------------------------------------------------|
G|------5--6--7--8--9---------------------------------------------------------|
D|-----------------------8/9--8/9--8/9--8/9--8/9--8/9-------------------------|
A|-----------------------8/9--8/9--8/9--8/9--8/9--8/9-------------------------|
E|-----------------------6/7--6/7--6/7--6/7--6/7--6/7-------------------------|
Un día en mi camino a la oficina....
Riff A (Siempre el mismo menú...) x2
Riff B

Gran Final:
e|---------------------------------------------------------------------------|
B|---------------------------------------------------------------------------|
G|-----------------5----4-----4-----4----------------------------------------|
D|--5--6--7----5---5----4-----4-----4-.....----------------------------------|
A|--5--6--7----5---3----2--2--2--2--2----------------------------------------|
E|--3--4--5----3-------------------------------------------------------------|

e|---------------------------------------------------------------------------|
B|---------------------------------------------------------------------------|
G|---------------------------------------------------------------------------|
D|----9--9--9--9--9--------------2--2----------------------------------------|
A|-------------------7-----------2--2----------------------------------------|
E|-------------------------------0--0----------------------------------------|
     *  *

     
Добавлено: 27.11.2013
Другие материалы по этой песне:
  • Аккорды и текст

Страница создана 27.11.2013
http://primanota.ru/mama-ladilla/acoso-sexual-chords.htm
Привет, Гость.
Предлагаем пройти революционный курс по гитаре.
Подарок от PrimaNota.Ru, забирай!