PrimaNota.ru - самый крупный в мире бесплатный архив песенных текстов, аккордов, табулатур и нот


Malta - Mais Que O Sol - аккорды и текст, видео

Регистрация Запомнить меня
Войти через:  Facebook Google Twitter Vk Yandex Mail.ru

Malta - Mais Que O Sol - аккорды и текст, видео

Печатать
Просмотров: 103
Уроки эстрадного вокала в Санкт-Петербурге
Mais Que O Sol
Malta

Capotraste na 3ª casa           
Intro: E|------------6-6-6----------------------|
       B|---------------------8-8-8--6-6-6------|   (2x)
       G|---8-8-8-------------------------------|


C   G       D        Em
Eu vou guardar cada foto de nós dois
C    G    D   Em
Pra te levar pra onde eu for
C   G     D        Em
Vou desenhar cada linha em sua mão
C    G      D
Pra te lembrar
     Em
E eu sei que vou ser

C           G          D          Em
Mais que o sol como o fogo em sua pele
C             G    Em      D
Seja lá onde for o nosso amor
         C     G         D         Em
Vai ser como o sol derretendo toda neve
      C             Em    D
Dia e noite igual eu e você

Solo:

C   G   Em   D
C   G   Em   D



E|-----------------------------------------------------|
B|-----------------------------------------------------|
G|------7p5----------7p5----------5--7-5--3h5p3--------|
D|--5h8-----8-8--5h8-----8-8--5h8---------------7-5-3--|
A|-----------------------------------------------------|
E|-----------------------------------------------------|





E|-----------------------------------------------------|
B|-----------------------------------------------------|
G|------7p5----------5--7-5--3h5p3---------------------|
D|--5h8-----8-8--5h8---------------7-5h7-3---3---5~----|
A|-----------------------------------------5---5-------|
E|-----------------------------------------------------|




C    G    D        Em
Vou desenhar cada linha em sua mão
C   G       D
Pra te lembrar...


C           G          D           Em
Mais que o sol como o fogo em sua pele
C       G     Em    D
Seja lá onde for o nosso amor

         C      G       Em         D
Vai ser como o sol...
 C      G        Em         D
Como o sol...

C   G   Em   D

C   G      Em       D
           Como o sol...

---------------------
Thanks to JLS Org.© 2014 to chordify the song.
Добавлено: 22.10.2015
Другие материалы по этой песне:
  • Аккорды и текст

Страница создана 22.10.2015
http://primanota.ru/malta/mais-que-o-sol-chords.htm
Привет, Гость.
Предлагаем пройти революционный курс по гитаре.
Подарок от PrimaNota.Ru, забирай!