PrimaNota.ru - самый крупный в мире бесплатный архив песенных текстов, аккордов, табулатур и нот


Malt - Gezegen - таба, видео

Регистрация Запомнить меня
Войти через:  Facebook Google Twitter Vk Yandex Mail.ru

Malt - Gezegen - таба, видео

Печатать
Просмотров: 116
Artist: MALT
Album : KENDI ADINI TASIYAN ILK ALBUM
Title : GEZEGEN
Tablature: ENGIN KULALI

e|-----------------|
B|-fade-in---------|
G|-----------------|
D|-5-5-5-5-5-5-5-5-|
A|--3-3-3-3-3-3-3-3|
E|-----------------|

RIFF AB
e|------------------------------------------------------------------------------------|
B|------------------------------------------------------------------------------------|
G|------------------------------------------------------------------------------------|
D|-5-5-5-5---------------------6-6-6-6-5-5-5-5--------------------------3-------------|
A|--3-3-3-3--66-5-3-2-3-3-3-3-3-3-3-3---3-3-3-3--66-5-3-2-3-3-3-3-3--3--3-------------|
E|---------------------4-4-4-4-----------------------------4-4-4-4--1-1-1-------------|

e|------------------------------------------------------------------------------------|
B|------------------------------------------------------CleanToDistortion-------------|
G|------------------------------------------------------------------------------------|
D|-5-5-5-5---------------------------------------------5-5-5-5-5-5-5-5-5-5-5s7-7-7-7--|
A|--3-3-3-3-66-5-3-2-3-3-3-3-3-3-3-3-2-2-2-2--22-----2/3-3-3-3-3-3-3-3-3-3-3s5-5-5-5--|
E|--------------------4-4-4-4-4-4-4-4-3-3-3-3----3-5----------------------------------|

CHORUS
e|-------------------------------------LetRingAll-------------------------------------|
B|------------------------------------------------------------------------------------|
G|-5------4------8------7-----------5--2b~.--4------8------7------8------7-------5----|
D|-5------4------8------7-----------5--------4------8------7------8------7-------5----|
A|-3------2------6------5-----------3--------2------6------5------6------5-------3----|
E|---------------------------12\------------------------------------------------------|

RIFF AC
e|------------------------------------------------------------------------------------|
B|------------------------------------------------------------------------------------|
G|------------------------------------------------------------------------------------|
D|-5-5-5-5---------------------6-6-6-6-5-5-5-5--------------------------3-------------|
A|--3-3-3-3--66-5-3-2-3-3-3-3-3-3-3-3---3-3-3-3--66-5-3-2-3-3-3-3-3--3--3-------------|
E|---------------------4-4-4-4-----------------------------4-4-4-4--1-1-1-------------|

e|------------------------------------------------------------------------------------|
B|------------------------------------------------------CleanToDistortion-------------|
G|------------------------------------------------------------------------------------|
D|-5-5-5-5----------------------------------------------5-5-5-5-5-33-3-3--------------|
A|--3-3-3-3-66-5-3-2-3-3-3-3-3-3-3-3-2-2-2-2--22-----2S3-3-3-3-3--55-5-5--------------|
E|--------------------4-4-4-4-4-4-4-4-3-3-3-3----3-5----------------------------------|

CHORUS
e|-------------------------------------LetRingAll-------------------------------------|
B|------------------------------------------------------------------------------------|
G|-5------4------8------7-----------5--2b~.--4------8------7--------------------------|
D|-5------4------8------7-----------5--------4------8------7--------------------------|
A|-3------2------6------5-----------3--------2------6------5--------------------------|
E|---------------------------12\------------------------------------------------------|

e|-------------------------------------LetRingAll-------------------------------------|
B|------------------------------------------------------------------------------------|
G|-5------4------8------7-----------5--2b~.--4------8------7-----8-----7-----5--------|
D|-5------4------8------7-----------5--------4------8------7-----8-----7-----5--------|
A|-3------2------6------5-----------3--------2------6------5-----6-----5-----3--------|
E|---------------------------12\------------------------------------------------------|

PRESOLO
e|------------------(louder)----------------------------------------------------------|
B|------------------------------------------------------------------------------------|
G|----------PMPMPMPM------------------------------------------------------------------|
D|----------55555555555555555---------------------------------------------------------|
A|----------33333333333333333---------------------------------------------------------|
E|-12\------........------------------------------------------------------------------|

e|------------------------------------------------------------------------------------|
B|------------------------------------------------------------------------------------|
G|------------------------------------------------------------------------------------|
D|--------------------------8-7h8-5S7--8-7h8-5S7--7S8-8S10-10S12-12S14----------------|
A|-8-7h8-5S7-(4x)---------------------------------------------------------------------|
E|------------------------------------------------------------------------------------|

e|------------------------------------------------------------------------------------|
B|------------------------------------------------------------------------------------|
G|------------------------------------------------------------------------------------|
D|--------------------------8-7h8-5S7--8-7h8-5S7--7S8-8S10-10S12-12S14----------------|
A|-8-7h8-5S7-(4x)---------------------------------------------------------------------|
E|------------------------------------------------------------------------------------|

SOLO
e|------------------------------------------------------------------------------------|
B|------------------------------------------------------13----------------------------|
G|-----------------------13-------13-13--13p12-10-12p10----14-12----------------------|
D|-12~-11-12-14-12h14b16----14b16-------------------------------14-13S11-11S9-9S7-----|
A|------------------------------------------------------------------------------------|
E|------------------------------------------------------------------------------------|

e|------------------------------------------------------------------------------------|
B|------------------------------------------------------------------------------------|
G|-14p12-14p12-14p12-14p12-14p12-14p12-14p12-15p12-15p12-15p12-15p12-15p12-15p12------|
D|------------------------------------------------------------------------------------|
A|------------------------------------------------------------------------------------|
E|------------------------------------------------------------------------------------|

e|------------------------------------------------------------------------------------|
B|------------------------------------------------------------------------------------|
G|-17p15-17p15-17p15-17p15-17p15-17p15-18p15-18p15-18p15-18p15-18p15-18p15-18p15------|
D|------------------------------------------------------------------------------------|
A|------------------------------------------------------------------------------------|
E|------------------------------------------------------------------------------------|

e|--------------------------------------------|
B|-\\20b22--\\20b22--\\20b22------------------|
G|----------------------------FadeOut---------|
D|--------------------------------------------|
A|--------------------------------------------|
E|--------------------------------------------|

FINISH WITH
e|------------------------------------------------------------------------------------|
B|------------------------------------------------------------------------------------|
G|-7----------------------------------------------------------------------------------|
D|-7----------------------------------------------------------------------------------|
A|-5----------------------------------------------------------------------------------|
E|------------------------------------------------------------------------------------|

S = /
Добавлено: 12.06.2012
Другие материалы по этой песне:
  • Аккорды и текст

Страница создана 12.06.2012
http://primanota.ru/malt/gezegen-chords.htm
Привет, Гость.
Предлагаем пройти революционный курс по гитаре.
Подарок от PrimaNota.Ru, забирай!