PrimaNota.ru - самый крупный в мире бесплатный архив песенных текстов, аккордов, табулатур и нот


Malon - Malon Mestizo - таба, видео

Регистрация Запомнить меня
Войти через:  Facebook Google Twitter Vk Yandex Mail.ru

Malon - Malon Mestizo - таба, видео

Печатать
Просмотров: 66
Intro: Tocar cuatro veces       
 
E|------------------------------------------|   
B|------------------------------------------|
G|--9\7--9---7--/--9---12---9\7/9--7/9------|
D|--9\7--9---7--/--9---12---9\7/9--7/9--8---|
A|--7\5--7---5--/--7---10---7\5/7--5/7--8---|
E|-------0------------------------------6---|

Por la negrada cansada y hambrienta... 
 
BASE1:
E|-----------------|X3|-------------------| C
B|-----------------|  |-------------------| U
G|-----------------|  |----------------10-| A
D|-----------------|  |----------------10-| T
A|------------7---7|  |------------7---8--| R
E|--0-0-0-0-0-0-0-0|  |--0-0-0-0-0-0-0----| O
                                            
E|-----------------|X3|-------------------| 
B|-----------------|  |-------------------| V
G|-----------------|  |----------------10-| E
D|-----------------|  |----------------10-| C
A|------------7---7|  |------------7---8--| E
E|--0-0-0-0-0-0-0-0|  |--0-0-0-0-0-0-0----| S
                                            
ESTRIBILLO:CON INTRO X2

Cantado sobre base 1 X2
 
Acorralados por el egoismo...

ESTRIBILLO:CON INTRO X4 

Base2 del solo:(la saque mas o menos)

E|--------------------------------------|
B|--------------------------------------|
G|--------------------------------------|
D|--------------------------------------|
A|----------7^8^7------7^8^7------7^8^7-|
E|--0-0-0--0-----0-0--0-----0-0--0------|

E|-----------|
B|-----------|
G|-----------|
D|----7------|
A|----5----8-|
E|-0-0-0-0-6-|

INTRO X4  

BASE1:X2

Hoy somos miles los que le cantamos...  

INTRO:HASTA EL FINAL
 
           LEO (AXL ROSE) 
       leognr@
Добавлено: 17.03.2016
Другие материалы по этой песне:

Страница создана 11.09.2013
http://primanota.ru/malon/malon-mestizo-chords.htm
Привет, Гость.
Предлагаем пройти революционный курс по гитаре.
Подарок от PrimaNota.Ru, забирай!