PrimaNota.ru - самый крупный в мире бесплатный архив песенных текстов, аккордов, табулатур и нот


Malon - Judas De Oficio - таба, видео

Регистрация Запомнить меня
Войти через:  Facebook Google Twitter Vk Yandex Mail.ru

Malon - Judas De Oficio - таба, видео

Печатать
Просмотров: 57
Intro
D------------------------------------------------------------------------
A------------------------------------------------------------------------
F------------------------------------------------------------------------
C--12/11--11/10---10/9-------9/10--10/9------9/10--10/9-------9/10--10/9-
G--10/9----9/8-----8/7-------7/8----8/7------7/8----8/7-------7/8----8/7-
D------------------------0-0-------------0-0-------------0-0-------------

  Llegaron...
D------------------------------------------------------------------------
A------------------------------------------------------------------------
F------------------------------------------------------------------------
C------9/10--10/9------9/10--10/9-------9/10---10/9--12/11--11/10---10/9-
G------7/8----8/7------7/8----8/7-------7/8-----8/7--10/9----9/8-----8/7-
D--0-0-------------0-0-------------0-0-----------------------------------

 y le toco perder...
D-------------------------------------
A-------------------------------------
F-------------------------------------
C-------------------------------------
G--9---10--9---7-----9---10--9---7----
D--7---8---7---5-----7---8---7---5----


 Inter1: (Despues de 'lagrimas de traicion')
D-------------------------------------------------------------
A-------------------------------------------------------------
F-------------------------------------------------------------
C-----------9---9---(7)---------12--10--9---------------------
G-----------7---7---(5)---------10--8---7---------------------
D-0-0-0-0-0---0---0-----0-0-0-0-------------------------------

  Se borraron los q ayer... (el ritmo es medio complicado)
D-------------------------------------------------------------
A-------------------------------------------------------------
F-------------------------------------------------------------
C--9--9--9--9--9--9---9-8-7-----------------------------------
G--7--7--7--7--7--7---7-6-5-----------------------------------
D-------------------------------------------------------------
pm   ..    ..   ..

Inter1

Solo del tano

Inter2 : entre el solo del tano
D-----------------+-----------------------------
A-----------------+-----------------------------
F*---------------*+-----------------------------
C*-10/9---9/8--7-*+--7-7-7/10-------------------
G---8/7---7/6--5--+--5-5-5/8--------------------
D-----------------+-----------------------------

AGUANTE MALóN!!!

******************************************************
SI NO SABEN AFINARLA EN RE A LA VIOLA MANDENME UN MAIL
A JORGE_CIPO10@
Добавлено: 17.03.2016
Другие материалы по этой песне:
  • Аккорды и текст

Страница создана 17.03.2016
http://primanota.ru/malon/judas-de-oficio-chords.htm
Привет, Гость.
Предлагаем пройти революционный курс по гитаре.
Подарок от PrimaNota.Ru, забирай!