PrimaNota.ru - самый крупный в мире бесплатный архив песенных текстов, аккордов, табулатур и нот


Malon - Hipotecado - бас-таба, видео

Регистрация Запомнить меня
Войти через:  Facebook Google Twitter Vk Yandex Mail.ru

Malon - Hipotecado - бас-таба, видео

Печатать
Просмотров: 47
Intro:
G ---------------------------------- |
D ---------------------------------- |
A ---------------------------------- |
E 0-0-5/6-0-5/6-0-5/6--silencio----- | X4

Riff:
G ------------------------------------------------------------------- |
D ------------------------------------------------------------------- |
A -------------------------------6/5--------------------------------- |
E 5/6-5/6-5/6---5/6-5/6-5/6----------------5/6-5/6-5/6---5/6-5/6-5/6- | X2

Canto (si estás metido en el juego...):
G ------------------------------------------------------------------- |
D ------------------------------------------------------------------- |
A -------------------------------6/5--------------------------------- |
E 5/6-5/6-5/6---5/6-5/6-5/6----------------5/6-5/6-5/6---5/6-5/6-5/6- | X2

Estribillo:
G ---------------------------------------------------- |
D ---------------------------------------------------- |
A ---------------------------------------------------- |
E 5-5-6-6-5-6-5-6-5-5-6-6-----000-555-000-555--------- | X2

Se repite el riff.
Se repite el canto.
Se repite el estribillo.

Riff II:
G ----------------------------------------
D ----------------------------------------
A ----------------------------------------
E 0-0-0-0-3333333------------------------- | X3 | -0-0-0-0-

Queda el bajo solo:
G ------------------------------- |
D ------------------------------- |
A ------------------------------- |
E 9-8-7-6-6/5---9-8-7-6-6/7------ | X3

Se suma la guitarra:
G ------------------------------- |
D ------------------------------- |
A ------------------------------- |
E 9-8-7-6-6/5---9-8-7-6-6/7------ | X9

Canto II (celebran el triunfo...):
G -------------------------- |
D -------------------------- |
A -------------------------- |
E 5-5-0000---5-5-0000------- | X4

G ------------------------------- |
D ------------------------------- |
A ------------------------------- |
E 9-8-7-6-6/5---9-8-7-6-6/7------ | X4

Se repite el Canto II.

G ------------------------------- |
D ------------------------------- |
A ------------------------------- |
E 9-8-7-6-6/5---9-8-7-6-6/7------ | X8

Se repite el Riff II.
Se repite el Canto.
Se repite el Estribillo.
Добавлено: 17.03.2016
Другие материалы по этой песне:

Страница создана 27.03.2012
http://primanota.ru/malon/hipotecado-chords.htm
Привет, Гость.
Предлагаем пройти революционный курс по гитаре.
Подарок от PrimaNota.Ru, забирай!