PrimaNota.ru - самый крупный в мире бесплатный архив песенных текстов, аккордов, табулатур и нот


Malon - Gatillo Facil - таба, видео

Регистрация Запомнить меня
Войти через:  Facebook Google Twitter Vk Yandex Mail.ru

Malon - Gatillo Facil - таба, видео

Печатать
Просмотров: 49

INTRO:TOCAR DOS VECES
E|------------------------|X2
B|------------------------|
G|------------------------|
D|------------------------|
A|----------7-------------|
E|6-5-5-5-5-5-5-5-5-5-5-5-|
 
|-----------------------------------|
|-----------------------------------|
|-----------------------------------|
|-------------------------7--5-4----|
|-----------7---------5-4-5--3-2-5--|
|-6-5-5-5-5-5-5-5-5-5-3-2--------3--|

ESTROFA:SOBRE INTRO

ESTRIBILLO:
E|------------------------------------------
B|------------------------------------------
G|------------------------------------------
D|7-----------------------------------------
A|5--5------------7-----------------------7-
E|---3--6-5-5-5-5-5-5-5-5-5-5-5-6-5-5-5-5-5-

----------------------------| 
----------------------------| 
----------------------------| 
----------7-----9--7--5--4--|
----------5--5--7--5--3--2--|
5-5-5-5-5----3--------------|

INTRO

INTRO

ESTROFA

PASO EN BUDGE...
E|----------------------------|X4
B|----------------------------|
G|----------------------------|
D|----------------------------|
A|----------------------------|
E|-6-5-5-5-5-5--3-2-3-2-2-3-5-|

solo

en budge

FINAL:CON ESTRIBILLO
Добавлено: 17.03.2016
Другие материалы по этой песне:

Страница создана 18.09.2013
http://primanota.ru/malon/gatillo-facil-chords.htm
Привет, Гость.
Предлагаем пройти революционный курс по гитаре.
Подарок от PrimaNota.Ru, забирай!