PrimaNota.ru - самый крупный в мире бесплатный архив песенных текстов, аккордов, табулатур и нот


Malon - Espiritu Combativo - таба, видео

Регистрация Запомнить меня
Войти через:  Facebook Google Twitter Vk Yandex Mail.ru

Malon - Espiritu Combativo - таба, видео

Печатать
Просмотров: 97
Уроки эстрадного вокала в Санкт-Петербурге
Intro

e|-------------------------------------------------------------------|
B|-------------------------------------------------------------------|
G|-------------------------------------------------------------------|
D|--2----------------------------------------------------------------|
A|--2-2-3-2--5-4-5--5-7-5--7--5--2--2-3-2-5-4-5--5-7-5---7----10--2--|
E|--0--------3-2-3---------5--3--0--------3-2-3--------0-5--0--8--0--|

e|----------------------------------------------------------------------------|
B|----------------------------------------------------------------------------|
G|----------------------------------------------------------------------------|
D|----------------------------------------------------------------------------|
A|-2-3-2-5-4-5-5-7-5---7-5-2-2-3-2-5-4-5-5-7-5---7----10--2----10---7---5---4-|
E|-------3-2-3-------0-5-3-0-------3-2-3-------0-5--0--8--0--0--8-0-5-0-3-0-2-|

Riff 1 y canto

e|----------------------------------|
B|----------------------------------|
G|----------------------------------|
D|----------------------------------|
A|-2--2--2--2--2--2--2-------10---7-|
E|-0--0--0--0--0--0--0--0--0--8-0-5-|

Viviendo bajo el alcance
De la ira despreciable
Debo encontrar al sol
El camino a perdurar
Soportar la miseria
Desgarrando mis entrañas
Anclado en mis piernas

Riff 2

e|------------------------------------------|
B|------------------------------------------|
G|------------------------------------------|
D|------------------------------------------|
A|-2--2--2--2--2--2--2--2----10---7---5---4-|
E|-0--0--0--0--0--0--0--0--0--8-0-5-0-3-0-2-|

Por sobre toda la tierra

Riff 3

e|-------------------------------------------------|
B|-------------------------------------------------|
G|-------------------------------------------------|
D|-------------------------------------------------|
A|-2--2--4--5--4--5--9--2---2---2-2--5--7---5-7-5--|
E|-0--0--2--3--2--3--7--0---0---0-0--7--5---3-5-3--|

Recordando soy esclavo del pandemonium social

Riff 1

Desarrollo malogrado
Ideas irresponsables
Manteniendome al costado

Riff 2

De mentes en decadencia

Riff 3

Recordando soy esclavo
Del pandemonium social

Riff 4

e|-----------------------------------------------------------|
B|-----------------------------------------------------------|
G|-----------------------------------------------------------|
D|-----------------------------------------------------------|
A|-2--2--2-5-5-5-5--10--10--7-5-4--2---2-2-2--9--7---5-5--4--|
E|-0--0--0-3-3-3-3---8---8--5-3-2--0---0-0-0--7--5---3-3--2--|

Si el mañana se alterna por concebir sin pericia

e|-------------------------------------------------------------|
B|-------------------------------------------------------------|
G|-------------------------------------------------------------|
D|-------------------------------------------------------------|
A|-2--2-2-2--5--5--5-10-5--7-5-9--2--2---2--2--9--7--5--7---9--|
E|-0--0-0-0--3--3--3--8-3--5-3-7--0--0---0--0--7--5--3--5---7--|

Tu espíritu combativo es el que hará justicia

Riff 1

De soñar a primitivo
De comodín a propio as
Alzando el sentimiento

Riff 2

Que vive en mi por demás

Riff 5

e|----------------------------------------------------------|
B|----------------------------------------------------------|
G|----------------------------------------------------------|
D|----------------------------------------------------------|
A|-2--2--4--5--4--4---4--9-2--2--2--2---9--7---5---7--5--2--|
E|-0--0--2--3--2--2---2--7-0--0--0--0---7--5---3---5--3--0--|

Recuérdalo si eres esclavo nunca te olvides de combatir

e|-----------------------------------------------------------------|
B|-----------------------------------------------------------------|
G|-----------------------------------------------------------------|
D|-----------------------------------------------------------------|
A|-2--2--4--5--9--7-5---9---9------7---2--2--2--9--7--5---4--5--2--|
E|-0--0--2--3--7--5-3---7---7--8-7-5---0--0--0--7--5--3---2--3--0--|

Recuérdalo ser para siempre el reflejo de tu sentir.

Final.

e|------------------------------|
B|------------------------------|
G|------------------------------|
D|------------------------------|
A|-2--2--2--2----10---7---5---4-|
E|-0--0--0--0--0--8-0-5-0-3-0-2-|

SE LO DEDICO A MI VIEJO Q SIEMPRE ME HACE EL AGUANTE!!
Добавлено: 17.03.2016
Другие материалы по этой песне:

Страница создана 17.11.2013
http://primanota.ru/malon/espiritu-combativo-chords.htm
Привет, Гость.
Предлагаем пройти революционный курс по гитаре.
Подарок от PrimaNota.Ru, забирай!