PrimaNota.ru - самый крупный в мире бесплатный архив песенных текстов, аккордов, табулатур и нот


Malon - Ciegos Del Mundo - таба, бас-таба, видео

Регистрация Запомнить меня
Войти через:  Facebook Google Twitter Vk Yandex Mail.ru

Malon - Ciegos Del Mundo - таба, бас-таба, видео

Печатать
Просмотров: 48
ntro.

e|----------------------------------------------------------------|
B|----------------------------------------------------------------|
G|----------------------------------------------------------------|
D|-9-----------9------------9------------10--9----------------9---| X2 
A|-7-9-10--12--7--10--9--7--7--9--10--12--8--7--12--10--9--7--7---|
E|---7--8--10------8--7--5-----7---8--10--------10---8--7--5------|


e|----------------------------------------|
B|----------------------------------------|
G|----------------------------------------|
D|-9--9--9------------9--9--9-------------| X2 
A|-7--7--7--10--9--7--7--7--7--9--10--12--|
E|-----------8--7--5-----------7---8--10--|

Canto.

e|----------------------------------------------|
B|----------------------------------------------|
G|----------------------------------------------|
D|-99999999------------9999999999---------------| 
A|-77777777--10--9--7--7777777777-9--10--12-----|
E|------------8--7--5-------------7---8--10-----|

Estribillos.

  B5  C5  D5 A5  G5  F#5 E5
e|---------------------------|
B|---------------------------|
G|---------------------------|
D|---------------12--11--9---|
A|-9--10--12--7--10---9--7---|
E|-7---8--10--5--------------|

Canto.

Vibran claman su estirpe de guardian
odian juzgan heroes del polvo vivaz
mandan turban necios tambien en la gloria
tercos torpes hasta en su propia disputa.

Estribillo.

B5       C5    D5      A5
Rugiendo ser pobres o reyes

B5         C5      D5 G5 F#5 E5
soberbios como el frio verdugo

Canto.

Gozan rien en la total ignorancia
corren desvelan en el delirio impaciente
brota inunda el azote de la historia
nacen viven en la mental arrogancia

Estribillo.

deguellan solo por el placer 
de oler el ajeno dolor.

Canto.

Vibran claman su estirpe de guardian
odian juzgan heroes del polvo vivaz
mandan turban necios tambien en la gloria
tercos torpes hasta en su propia disputa

Estribillo.

rugiendo ser pobres o reyes
soberbios como el frio verdugo

Canto.

Gozan rien en la total ignorancia
corren desvelan en el delirio impaciente

Estribillo.

rugiendo ser pobres o reyes

   B5      C5        D5    E5 E5 D5 C5 B5
soberbios como el verdugo

deguellan solo por el placer 
de oler el ajeno dolor.
Добавлено: 04.04.2016
Другие материалы по этой песне:

Страница создана 08.11.2013
http://primanota.ru/malon/ciegos-del-mundo-chords.htm
Привет, Гость.
Предлагаем пройти революционный курс по гитаре.
Подарок от PrimaNota.Ru, забирай!