PrimaNota.ru - самый крупный в мире бесплатный архив песенных текстов, аккордов, табулатур и нот


Malon - Castigador Por Herencia - таба, бас-таба, видео

Регистрация Запомнить меня
Войти через:  Facebook Google Twitter Vk Yandex Mail.ru

Malon - Castigador Por Herencia - таба, бас-таба, видео

Печатать
Просмотров: 55
INTRODUCCIÓN: BAJO/BATERÍA.

E|-----------------------------|-------------------------------------
B|-----------------------------|-------------------------------------
G|----------x3-----------------|-------------------------------------
D|-----------------------------|-------------------------------------
A|-8~--------------------------|----8~--------------------------8~---
E|-6~-00-00-00-00--00-00-00-00-|----6~-00-00-00-00--00-00-0-00006~---

RIFF PRINCIPAL: 2 VECES
E|----------------------------------------------------------------------|
B|----------------------------------------------------------------------|
G|----------------------------------------------------------------------|
D|----------------------------------------------------------------------|
A|--------------8~--------------10~-------------12~-------------109-----|
E|-00000-00000-06~-00000-00000-08~-00000-00000-010~-00000-00000-8 7-----|

ESTROFA: REPETIR 2 VECES

E|--------------------------------------------------------------------|
B|--------------------------------------------------------------------|
G|--------------------------------------------------------------------|
D|--------------------------------------------------------------------|x2
A|--------------8~--------------10~-------------12~-------------109---|
E|-00000-00000-06~-00000-00000-08~-00000-00000-010~-00000-00000-8 7---|

E|----------------------------|---------------|-|-----------------------|
B|-------------A--------------|---------------|-|-----------------------|
G|----------------------------|---------------|A|-----------------------|
D|----------------------------|---------------|-|-----5-----------------|x2
A|-------5---------3--------5-|---------------|-|-----3---5-------------|
E|-0-00-03--0-00-0-1--0-00-03-|---0-1232p0h1~-|-|---00--003-------------|

INTERLUDIO: 8 VECES

E|--------------------------------------------------------------------|
B|--------------------------------------------------------------------|
G|--------------------------------------------------------------------|
D|--------------------------------------------------------------------|
A|--------------------------------------------------------------------|
E|-00-00-00-00-00-00-00-01111-1p0-------------------------------------|

PUENTE: ?EN SU ALMA...? REPETIR 4 VECES

E|-----------------------------------------------------------------------|
B|-----------------------------------------------------------------------|
G|-----------------------------------------------------------------------|
D|-----5-4~--------------------------------------------------------------|
A|-2~--3-2~-4-5-2~--8-7~--5~---------------------------------------------|
E|-0~-------2-3-0~--6-5~--3~---------------------------------------------|

PRE-SOLO: MALA ENTRAÑA!!!!!!

E|---------------------------------------------------------------------|
B|---------------------------------------------------------------------|
G|---------------------------------------------------------------------|
D|---------------------------------------------------------------------|
A|-------------8~-------------10~-------------12~----------------------|
E|-00-00-00-00-6~-00-00-00-00-8~--00-00-00-00-10~-00-00-00-00----------|

SOLO:

E|------|----------|--------------7h8p7-5h7p5-3h5p3-2h3p2p0~------------|
B|---5p4|-4h5h7p5p4|-45~-7h8h10~----------------------------------------|
G|-6~---|6---------|6---------------------------------------------------|
D|------|----x3----|----------------------------------------------------|
A|------|----------|----------------------------------------------------|
E|------|----------|----------------------------------------------------|

E|----|----------|-----|-----------|-----|-----------|------------------|
B|----|----------|-----|-----------|--8p7|-7h8h10p8p7|-1012~------------|
G|-7p6|-6h7h9p7p6|-69p7|-7h9h11p9p7|-7---|9----------|9-----------------|
D|----|7---------|7----|9----------|9----|-----------|------------------|
A|----|----x2----|-----|-----x2----|-----|-----x2----|------------------|
E|----|----------|-----|-----------|-----|-----------|------------------|

E|------|-------------------------------------------------------------|
B|---A--|-12h15p12h15-10h12p10h12-8h10p8h10-7h8p7h8-------------------|
G|------|-------------------------------------------------------------|
D|-4-5-4|-------------------------------------------------------------|
A|-2-3-2|-------------------------------------------------------------|
E|------|-------------------------------------------------------------|

E|-----|--------------------------------------------------------------|
B|-----|--------------------------------------------------------------|
G|--A--|----------9~----------9~--------------------------------------|
D|-----|-7-11p9p7----7-11p9p7----7-11p9p7~----------------------------|
A|-----|--------------------------------------------------------------|
E|-----|--------------------------------------------------------------|

E|-----|---------------------------|----------------------------------|
B|-----|---------------------------|----------------------------------|
G|--A--|----11~----10~----9~----7~-|----------------------------------|
D|-----|-99-----99-----99----99----|---------------------7-7----------|
A|-----|---------------------------|-3333-0000-2222-3333-5-5----------|
E|-----|---------------------------|----------------------------------|

ESTROFA DE VUELTA Y LUEGO FINAL:

E|--------------------------------------------------------------------|
B|--------------------------------------------------------------------|
G|--------------------------------------------------------------------|
D|--------------------------------------------------------------------|
A|-------------8~-------------10~--------------12~--------------------|
E|-00-00-00-00-6~-00-00-00-00-8-~--00-00-00-00-10~--00-00-00----------|
Добавлено: 04.04.2016
Другие материалы по этой песне:

Страница создана 08.08.2013
http://primanota.ru/malon/castigador-por-herencia-chords.htm
Привет, Гость.
Предлагаем пройти революционный курс по гитаре.
Подарок от PrimaNota.Ru, забирай!