PrimaNota.ru - самый крупный в мире бесплатный архив песенных текстов, аккордов, табулатур и нот


Malon - Cancha De Lodo - таба, видео

Регистрация Запомнить меня
Войти через:  Facebook Google Twitter Vk Yandex Mail.ru

Malon - Cancha De Lodo - таба, видео

Печатать
Просмотров: 92
Уроки эстрадного вокала в Санкт-Петербурге
INTRO:
Em
e|--------------------|
b|--------------------|
g|-------------0------|
d|------2----2-----2--|
a|----2----3-----3----|
e|--0-----------------|

Em
TENGO LAS MANOS CANSADAS 

Em
DE HACER LADRILLOS AJENOS

Em
MI SANGRE SE ESTÁ MEZCLANDO

Em
CON EL BARRO DEL PISADERO

F5# G5
e|-----------------|
b|-----------------|
g|-----------------|
d|----4-----5-5-4--|
a|----4---5--------|
e|--2----3---------|

HAY DÍAS QUE ME PARECE
CHAPALEAR EN UN CHIQUERO

Como intro

Em
MIRANDO AQUELLAS CASONAS

Em
QUE SE HAN HECHO CON MI ESFUERZO

Distorcionado y con stacato:
e|---------------------------------------|
b|---------------------------------------|
g|-------------0------------------0------|
d|------2----2-----2--------2---2-----2--|
a|----2----3-----3------------3-----3----|
e|--0-----------------0-0-0--------------|

CADA DÍA QUE PASA 
SE ME VIENE ABAJO UN SUEÑO
ES PATRÓN NO ME SUJETA 
MAS SIEMPRE LE ESTOY DEBIENDO


F5# / G5 / C5
A5 / G5 / F5# / Em / F5# / G5
F5# / G5 / C5
Em / F5# / G5 / A5 / B5 / C5 / D5
F5# / G5 / C5
A5 / G5 / F5# / Em / F5# / G5
F5# / G5 / C5
Em / F5# / G5 / A5 / B5 / C5 / D5 / E5

Distorcionado y con stacato:
e|---------------------------------------|
b|---------------------------------------|
g|-------------0------------------0------|
d|------2----2-----2--------2---2-----2--|
a|----2----3-----3------------3-----3----|
e|--0-----------------0-0-0--------------|

CUANDO ME TIÑO DE VINO
ME LIMPIO EL BARRO POR DENTRO
MIRANDO PASAR LA VIDA
HECHO CARGA RUMBO AL PUEBLO

F5# / G5 / C5
A5 / G5 / F5# / Em / F5# / G5
F5# / G5 / C5
Em / F5# / G5 / A5 / B5 / C5 / D5
F5# / G5 / C5
A5 / G5 / F5# / Em / F5# / G5
F5# / G5 / C5
Em / F5# / G5 / A5 / B5 / C5 / D5 / E5

Em - C5 - A5 - G5 / B5 - A5 - F5# / A5 - G5 - F5/ G5 - F5 - Em
EN MESES PASO JORNADAS

Em - C5 - A5 - G5 / B5 - A5 - F5# / A5 - G5 - F5/ G5 - F5 - Em
SIN MIRAR COMO ES EL CIELO

Em - C5 - A5 - G5 / B5 - A5 - F5# / A5 - G5 - F5/ G5 - F5 - Em
ME ESTOY MEZCLANDO A LA TIERRA

Em - C5 - A5 - G5 / B5 - A5 - F5# / A5 - G5 - F5 / F5~
ME ESTOY SEPULTANDO VIVO

F5#
e|---------------------------------------+----------------------------------|
b|---------------------------------------+----------------------------------|
g|----------------5\4--------------------+----------------5\4---------------|
d|----------------5\4--------------------+----------------5\4---------------|
a|----------------3\2-----------------5--+----------------3\2---------------|
e|--2--2-2-2--2--------0-2-2-0-0-0-2--3--+--2--2-2-2--2--------5-3-2-0-2-3--|

Con la base que figura arriba:

Y PENSAR QUE SE ME LLEVAN
MIS SUDORES LOS LADRILLOS
CADA VEZ ME CUESTA MÁS 
ALZAR EL MOLDE BARRERO 
SERÁ POR ESTAR CANSADO
DE ANDAR HUNDIDO EN EL SUELO
HUMEDAD CANCHA DE LODO 
DONDE SE AMASA MI TIEMPO

EN MESES PASO JORNADAS
SIN MIRAR COMO ES EL CIELO
ME ESTOY MEZCLANDO A LA TIERRA
ME ESTOY SEPULTANDO VIVO.

Fin:
e|--------------------------0-|
b|------------------------0---|
g|-------------0--------0-----|
d|------2----2-----2----------|
a|----2----3-----3------------|
e|--0-------------------------|

Solo Guitarra: 
e|-----------------------+------------------+----------------------------------------|
b|-----------------------+------------------+-----------------11--12-11-10--12-10----|
g|--9----9-11-12-11------+------------------+----9-11-12-11-9---------------------12-|
d|--9--9------------12---+------------------+--9-------------------------------------|
a|--7------------------9-+--10-9-8--/10-8-7-+----------------------------------------|
e|-----------------------+------------------+----------------------------------------|

e|-------------------------+--------------------+------------------------|
b|-------------------------+--------------------+--------------------11--|
g|-------------------------+--------------------+----9-11-12-12^11-9-----|
d|-----------9-10----------+---------7-7/8------+--9---------------------|
a|-----10-12------12-10-9~-+----7-8--------8-7~-+------------------------|
e|--10---------------------+--8-----------------+------------------------|

e|-----------------------------------------+---------------------------------15-14~--|
b|--12-11-10--9-10-11--10-11-12--11-12-13~-+-------------------------13-12-----------|
g|-----------------------------------------+-----------------12-11-------------------|
d|-----------------------------------------+---------11-10---------------------------|
a|-----------------------------------------+--10-9-----------------------------------|
e|-----------------------------------------+-----------------------------------------|

e|-------------------------------------------------------|
b|-------------------------------------------------------|
g|-------------------------------------------------------|
d|-------------------------------------------------------|
a|-12-14-15-15^14----14----------------------------------|
e|----------------15----15--14-15-15^14-12--14-15-15^14--|

Con Trino:
e|-----------------------------15-14-----------------------|
b|----------------------13-12---------15-14----------------|
g|---------------12-11-----------------------15-14--11-12--|
d|--------11-10--------------------------------------------|
a|--10-9---------------------------------------------------|
e|---------------------------------------------------------|

e|--------------------------------------------------------------------------------|
b|---------------------12/(14)-%-%-%-%-12/(14)-12-10----10--12-10-12--14-12-14-15-|
g|--11~-12-11~-%-%-%~--------------------------------13---------------------------|
d|--------------------------------------------------------------------------------|
a|--------------------------------------------------------------------------------|
e|--------------------------------------------------------------------------------|

e|-----------------14-16-17-/16-14-16-13--------------------------------|
b|--17/(19)-%-%-%--------------------------------------------19-20--17~-|
g|-------------------------------------------------14-16-17-------------|
d|-------------------------------------------13-16----------------------|
a|----------------------------------------15----------------------------|
e|----------------------------------------------------------------------|
Добавлено: 17.03.2016
Другие материалы по этой песне:

Страница создана 20.08.2013
http://primanota.ru/malon/cancha-de-lodo-chords.htm
Привет, Гость.
Предлагаем пройти революционный курс по гитаре.
Подарок от PrimaNota.Ru, забирай!