PrimaNota.ru - самый крупный в мире бесплатный архив песенных текстов, аккордов, табулатур и нот


Malmis - Stoned Rock Song - таба, видео

Регистрация Запомнить меня
Войти через:  Facebook Google Twitter Vk Yandex Mail.ru

Malmis - Stoned Rock Song - таба, видео

Печатать
Просмотров: 116
STONED-rock song   tabbed by: MALMIS

put on the net by olli  email   sp95olli@egy.engelholm.se

bass
G------7-5-4-5-4---------------------------------------------------4-5-4---------|
D-5-5--------------5-------7-5-4-5-4---------5-4-------4-5-5-5--------5-5-5--|
A----------------------5-5--------------5-3-3-------5-5---------------------------|
E-------------------------------------------------------------------------------------|

lead guitar
e---------------------------------------------|
h--------------------second time only----|
g----------------------------|---|-------------|
d-5---7---10-9-10-9-7-5-7-9------------|
a--------------------------------------------|
E--------------------------------------------|

komp guitar
vers
||: G5  D5  C5  D5  G5 :||

refrain
E5  C5  E5  D5  E5  C5  D5

stick
C5  D5  E5  G5  C5  D5  E5  D5  C5  D5  E5  G5  C5  D5  G5

G5                D5                      C5                       E5
e---------------------------------------------------|
h---------------------------------------------------|
g---------------7-------------5--------------------|
d----5----------7-------------5-----------2-------|
a----5----------5-------------3-----------2-------|
E----3-------------------------------------0------|
Добавлено: 20.04.2012
Другие материалы по этой песне:
  • Аккорды и текст

Страница создана 20.04.2012
http://primanota.ru/malmis/stoned-rock-song-chords.htm
Привет, Гость.
Предлагаем пройти революционный курс по гитаре.
Подарок от PrimaNota.Ru, забирай!